Ария: другие аккорды и тексты

Табулатура: Ария - "Кода"

» Главная
» Аккорды
» Школа игры
» Софт для гитары
» Схемы примочек
» Магазин
» Продам
» Куплю
» Фотографии
» [ne]FORMAT
» Ссылки
» Форум
» Знакомства
» MIDI
» Контакты


»



Кода

(альбом "Смутное время")

Ария

год: 1997
подбор: GNOM

В скобках указаны ноты, которые играются флажалетом.

|-----------12~-|------------|------------------|-----(12)---|
|--------(12)---|------(12)~-|--------(12)------|------------|
|-----(12)------|---8--------|------(12)-(12)---|------------|
|---9-----------|------------|----(12)-----(12)-|---------11-|
|---------------|-9----------|--10--------------|--12--------|
|-0-------------|------------|------------------|------------|



|------0-|-0----|-2----|---------|-----------12~-|------------|
|-----1--|--0---|---3--|---------|--------(12)---|------(12)~-|
|----2---|---0--|-----2|--------0|-----(12)------|---8--------|
|---2----|-2----|-0----|-020--2--|---9-----------|------------|
|-0------|------|------|----3----|---------------|-9----------|
|--------|------|------|---------|-0-------------|------------|



|------------------|-----(12)---|------0-|-0----|-------|-0~~~~-|
|--------(12)------|------------|-----1--|--0---|-4-----|--~~~~-|
|------(12)-(12)---|------------|----2---|---0--|---4---|--~~~~-|
|----(12)-----(12)-|---------11-|---2----|-2----|-4---4-|-2-----|
|--10--------------|--12--------|-0------|------|-------|-------|
|------------------|------------|--------|------|-------|--~~~~-|



|-----------8|--------|-2-------|-----------|---------|
|---------8--|-3------|---3-----|-----------|---------|
|-------9----|----4---|-----2---|--------0--|---------|
|----10------|------5-|-0-------|-020--2----|---------|
|------------|-5------|---------|----3------|---------|
|--8---------|--------|---------|-----------|---0~~~~-|



|-0-----|-----0~~|
|--0-4--|----0~~~|
|---0-4-|---0~~~~|
|-2--4-4|--2~~~~~|
|-------|-2~~~~~~|
|-------|0~~~~~~~|