Ария: другие аккорды и тексты

Аккорды и текст: Ария - "Отшельник"

» Главная
» Аккорды
» Школа игры
» Софт для гитары
» Схемы примочек
» Магазин
» Продам
» Куплю
» Фотографии
» [ne]FORMAT
» Ссылки
» Форум
» Знакомства
» MIDI
» Контакты


»



Отшельник

(альбом "Генератор зла")

Ария


intro solo

|---------------|------0----1----|--5------------|
|--3------------|----------------|---------------|
|---------------|----------------|---------------|
|---------------|----------------|---------------|
|---------------|----------------|---------------|
|---------------|----------------|---------------|

----------------|---------------|-------1-3--1----|--0------------|
------6---------|--8------------|-----------------|---------------|
-----------7----|---------------|-----------------|---------------|
----------------|---------------|-----------------|---------------|
----------------|---------------|-----------------|---------------|
----------------|---------------|-----------------|---------------|

---------------|---------------|------0----1----|--5------------|
--1------------|--3------------|----------------|---------------|
---------------|---------------|----------------|---------------|
---------------|---------------|----------------|---------------|
---------------|---------------|----------------|---------------|
---------------|---------------|----------------|---------------|

----------------|---------------|---------3-------|--0------------|
------6---------|--8------------|------6-----6----|---------------|
-----------7----|---------------|-----------------|---------------|
----------------|---------------|-----------------|---------------|
----------------|---------------|-----------------|---------------|
----------------|---------------|-----------------|---------------|

--8------------|---------------|------0----5----|--10------------|
---------------|--6------------|------8----6----|--10------------|
---------------|--7------------|----------------|----------------|
---------------|---------------|----------------|----------------|
---------------|---------------|----------------|----------------|
---------------|---------------|----------------|----------------|

------------------|--8------------|-------6-8--6----|--5------------|
------10----------|--8------------|-------6-8--6----|--5------------|
------10----10----|---------------|-----------------|---------------|
------------12----|---------------|-----------------|---------------|
------------------|---------------|-----------------|---------------|
------------------|---------------|-----------------|---------------|

---------------|---------------|------0----5----|--10------------|
--5------------|--6------------|------8----6----|--10------------|
--5------------|--7------------|----------------|----------------|
---------------|---------------|----------------|----------------|
---------------|---------------|----------------|----------------|
---------------|---------------|----------------|----------------|

------------------|--8------------|------6--8--6----|--5------------|
------10----------|--8------------|------6--8--6----|--5------------|
------10----10----|---------------|-----------------|---------------|
------------12----|---------------|-----------------|---------------|
------------------|---------------|-----------------|---------------|
------------------|---------------|-----------------|---------------|

--12------------|--13------------|
--13------------|--15------------|
----------------|----------------|
----------------|----------------|
----------------|----------------|
----------------|----------------|

  Em  D           C#m
Кто взял мой хрустальный шар,
        C
Не спросив меня?

Кто мне яду подмешал
Среди бела дня?
  D                       Em    Eb D    
Стой, где очерчен мелом круг, -
                        C7
Как мне приятен твой испуг!

Ты знал, что войти в мой дом -
Значит умереть!
Ты знал, но играл с огнем
И попался в сеть!

Но я не враг твой я твой друг.
Стой, где очерчен мелом круг!

 Em      Edim     Em       Edim   
Да, я отшельник, маг и волшебник,
 D               B7
Тяжек мой путь

  Em     Edim   Em       Edim
Древние тайны всех мирозданий
  C6 C   D  
Мне под силу

Я заклинаю и превращаю 
в золото ртуть,

  Em     Edim Em          Edim
Стану тобою, ты станешь мною,
 C6 C   D      Em
Верным сыном зла.

Ты жив, но для всех исчез
В черных облаках
Вот здесь ставят кровью крест -
Подпись на века
Я научу тебя летать,
В зеркале мира исчезать

G           
 В хрустальном шаре
     F
 Ты видишь этот мир,
    Em
 Пороки в нем играют
    D
 Нелепыми людьми,
Gm
 В хрустальном шаре
     F
 Ты видишь и себя -
     Eb
 То демон ты, то ангел,
    D             Em
 И мечется душа твоя.

О, ты поставил кровью крест,
До скорой встречи на костре.