Ария: другие аккорды и тексты

Аккорды и текст: Ария - "Кровь за кровь"

» Главная
» Аккорды
» Школа игры
» Софт для гитары
» Схемы примочек
» Магазин
» Продам
» Куплю
» Фотографии
» [ne]FORMAT
» Ссылки
» Форум
» Знакомства
» MIDI
» Контакты


»



Кровь за кровь

(альбом "Кровь за кровь")

Ария



Intro :

E-------------------------------------|------------------------------|
H----8---7----------------------------|---7--------------------------|
G---9--------9---7-------9------------|---7---9---7----------8-------|
D--9-------------------10-------------|---7-----------10----9--------|
A--------------------10---------------|--------------------9---------|
E-------------------------------------|------------------------------|

E-------------------------------------|-----------------------------||
H----8---7-------8------10--8---------|--7--8--7--8--7h8p7----------||
G---9--------9---------9-----------9--|--7------------------7-----9-||
D--9-----------------10----------10---|--7-----------------------9--||
A------------------------------10-----|------------------------10---||
E-------------------------------------|-----------------------------||

Main riff :

E-------------------------------------|-----------------------------------|
H-------------------------------------|-----------------------------------|
G-------------------------------------|-----------------------------------|
D--7---------8---------7--------------|-----------------------------------|
A-----8--5------8--5------8--5---5----|--5--5-----5--7--8--7--5h7p5-----5-|
E-------------------------------------|--------8---------------------8----|

E-------------------------------------|-----------------------------------|
H-------------------------------------|-----------------------------------|
G-------------------------------------|-----------------------------------|
D--7---------8---------7--------------|-----------------------------------|
A-----8--5------8--5------8--5---5----|--5--5-----5--7--8--7--5h7p5-------|
E-------------------------------------|--------8---------------------8--5-|

E-------------------------------------|-----------------------------------|
H-------------------------------------|-----------------------------------|
G-------------------------------------|-----------------------------------|
D--7---------8---------7--------------|-----------------------------------|
A-----8--5------8--5------8--5---5----|--5--5-----5--7--8--7--5h7p5--8--5-|
E-------------------------------------|--------8--------------------------|

E-------------------------------------|-----------------------------------|
H-------------------------------------|-----------------------------------|
G-------------------------------------|-----------------------------------|
D--7---------8---------7--------------|---------------------------------7-|
A-----8--5------8--5------8--5---5----|--5--5-----5--7--8--7--5h7p5--8----|
E-------------------------------------|--------8--------------------------|
I verse :
   G5                                   A5
   Ты готов сорваться в бой....  Понтий Пилат
E-------------------------------|-----------------------------------------|
H-------------------------------|---------------------------------11--10--|
G-------------------------------|-----------------------------------------|
D---5---------------------------|----------7----------8--7----------------|
A---5---------------------------|----------7----8--7--------8--7----------|
E---3---------------------------|----------5------------------------------|

   F#5                   G5 
   Ты устал от этих лиц, от чужой неискренней земли...


Intro:
_____G_________C_____Gb__________Cb____G_______A___C_____Gb___________________Em
1----3-2^3-----0--|--2--------------|--3-2-0-3-5-3----|--2--3--2--3--2^3^2----0-||
2----0-----5^3-1--|--2--5--3--1--4--|--3-------5---5--|--2-----------------3--0-||
3----0---------0--|--3-----------4--|--4-------6---5--|--3--------------------0-||
4----0---------2--|--4-----------4--|--5-------7---5--|--4--------------------2-||
5----2---------3--|--4-----------2--|--5-------7---3--|--4--------------------2-||
6----3---------3--|--2-----------2--|--3-------5---3--|--2--------------------0-||
вот как это звучит - 

  A
Древний град Иерусалим довлеет над тобой
          H
Понтий Пилат
 A                     H
Ты готов сорваться в Рим, махнуть на все рукой
    A               H
Забрав с собой солдат

 G#
Ты устал от этих лиц
      A
От чужой, неискренней земли
 G#
Боль тупая бьет в висок
  A                  H C H
Дню мучений выпал срок

  Em
Кровь за кровь!
       D                   Em
В том воля не людей, а богов
  Em
Смерть за смерть!
    D                        H
Ты должен не роптать, а терпеть
  Em
Здесь твой ад!
     D                    Em
Ты знаешь - нет дороги назад
 Em
Пей свой яд!
 D                         H
Пей, прокуратор Понтий Пилат


(Так играется только здесь)
   Em           C
В серебристый сон
D             H
Ты бы с ним ушел
По дороге вечных звезд
Hад простором строгих гор
Ты бы перед ним
На колени встал
Hе стыдясь ни слов, ни слез
Кто любил - тот и распял...