Ария: другие аккорды и тексты

Аккорды и текст: Ария - "Дух Войны"

» Главная
» Аккорды
» Школа игры
» Софт для гитары
» Схемы примочек
» Магазин
» Продам
» Куплю
» Фотографии
» [ne]FORMAT
» Ссылки
» Форум
» Знакомства
» MIDI
» Контакты


»



Дух Войны

(альбом "Ночь короче дня")

Ария

слова: Дубинин
 E------------7--5--3h0--|--7--5--3h0-----------|--------------------|
 H-----------------------|----------------------|--------------------|
 G--5--7--9--------------|----------------------|--5---5-5-5-5-5-----|
 D--5--7--9--------------|----------------------|--5---5-5-5-5-5-----|
 A--3--5--7--------------|----------------------|--3---3-3-3-3-3-0---|
 E-----------------------|----------------------|--------------------|

 E-----------------------|--5~~~----------------|
 H-----------------------|----------------------|
 G--------------------7--|----------------------|
 D--5---5-5-5-5-5-----7--|----------------------|
 A--5---5-5-5-5-5-----5--|----------------------|
 E--3---3-3-3-3-3-0------|----------------------|
  Em
Вновь и вновь я вижу сон
  C
Кровью залит горизонт
D                        C  D
И земля в огне на много миль
 Em
Шесть минут до часа икс
 C
Hебо скоро рухнет вниз
 D                         C H
Ветер всех развеет словно дым

Припев:
 C        D      Em        A
Время убивать, время наступать,
  C         D           H
Время наступать и побеждать

 C   D  Em                    D
Дух войны, встанет царь из тьмы
  Hm            C
Входит в наши сны
 G                D
Дух войны и мы ему верны
Вот и все, мир объят огнем
Hо не стихнет гром,
Дух войны - он требует еще