Ария: другие аккорды и тексты

Аккорды и текст: Ария - "Дезертир"

» Главная
» Аккорды
» Школа игры
» Софт для гитары
» Схемы примочек
» Магазин
» Продам
» Куплю
» Фотографии
» [ne]FORMAT
» Ссылки
» Форум
» Знакомства
» MIDI
» Контакты


»



Дезертир

(альбом "Генератор зла")

Ария



Вступление
     D                              C             
1|---2--2--2---3---5---5---3----2---0---| 
2|---3------------------------------1---|
3|---2------------------------------0---|
4|---0------------------------------2---|
5|----------------------------------3---|
6|----------------------------------3---|
     O, ка-ким бу-дет зав-тра-шний день
                        Hm             A
1|--2----3--3--2---0----2--0--2---2----0------|
2|----------------------3--------------2------|
3|----------------------4--------------2------|
4|----------------------4--------------2------|
5|----------------------2--------------0------|
6|----------------------2--------------0------|
    В э-том ми-ре боль-шом и враж-деб-ном
     D                            C             
1|---2-2-2-2-----3--5--5--3---2---0---|
2|---3----------------------------1---|
3|---2----------------------------0---|
4|---0----------------------------2---|
5|--------------------------------3---|
6|--------------------------------3---|
   Кто прой-дет по бур-ля-щей во-де 
                        Hm             
1|---2--3----3---2-0----2----0---2--1----8--5---|
2|----------------------3-----------------------|
3|----------------------4-----------------------|
4|----------------------4-----------------------|
5|----------------------2-----------------------|
6|----------------------2-----------------------|
    Тот нап-рас-но расп-нет сам се-бя

1|----------------7-4----------|1|---2---0-0--3-3-|
2|---3--5-6----5---------------|2|----------------| 
3|-----------------------------|3|----------------| 
4|-----------------------------|4|----------------|
5|-----------------------------|5|----------------|
6|-----------------------------|6|----------------|
     Э-то судь-ба-а-а                Да, э-то судь-ба-а-а...