Ария: другие аккорды и тексты

Аккорды и текст: Ария - "Без тебя"

» Главная
» Аккорды
» Школа игры
» Софт для гитары
» Схемы примочек
» Магазин
» Продам
» Куплю
» Фотографии
» [ne]FORMAT
» Ссылки
» Форум
» Знакомства
» MIDI
» Контакты


»



Без тебя

(альбом "С кем ты?")

Ария


Dm          C           Hb          A

e:-1----------0----------------------------------|
B:---3-----3-----1-----1--3-----------2----------|
G:------2-----------0--------3-----------2-----2-|
D:-0----------------------------------------2----|
A:------------3-----------1-----3--1--0----------|
E:-----------------------------------------------|
  снова      брошен      в окна лунный свет

  Dm            C          Hb C Dm

e:--1-----------0-------------0-1------|
B: ----3-----3-----1-----1-3------3---3|
G:--------2-----------0-------------2--|
D:--0---------------------------0------|
A:--------------3----------1--3--------|
E:-------------------------------------|
   дом мой     сонный      серебром одет

e:--1--0-------0----------------------------|
B:-------1--------3-------3-2--------2------|
G:---------0--------3---------2---2----2----|
D:--0-----------------3---------2--------2--|
A:-----3-------3--1-------1-0---------------|
E:------------------------------------------|
   M-M-M....

  Лунной кисти не достичь глубин
  Эту бездну знаю я один

Припев:

 D           G5
 Все, как вчера             
                            
 D           G5 Hb C        
 Все, как вчера             
                          
 D           G5             
 Все, как вчера
            A Gm F A
 Но  без тебя
 
Ревность, жалость словно заодно
Птицей скорби падаю на дно.

Am F G C H7 Снова ровно брошен лунный свет Am F G C H7 Дом мой сонный серебром одет. Am F G C H7 (***) Am F G C H7 (***) Am G Em Все, все как вчера Am G Em Все, все как вчера Am G Все, все как вчера C H7 Но без тебя. Лунной кисти не достичь глубин Эту бездну знаю я один. Ревность, жалость словно заодно Птицей скорби падаю на дно.