Ария: другие аккорды и тексты

Аккорды и текст: Ария - "Беспечный Ангел"

» Главная
» Аккорды
» Школа игры
» Софт для гитары
» Схемы примочек
» Магазин
» Продам
» Куплю
» Фотографии
» [ne]FORMAT
» Ссылки
» Форум
» Знакомства
» MIDI
» Контакты


» Forestry Картон www.bereg.net.
» Запись песни под минусовку в студии запись песни студии москва.



Беспечный Ангел

(альбом "Штиль")

Ария

слова: М. Пушкина, музыка: Golden Earing
год: 1997
подбор: Щаповалов Вова, email: vova_demidrol@yahoo.com

Беспечный Ангел

подбор Шаповалов Вова

Вступление (clean tone) 
                                                         
E||--------------------------|--------------------------|
B||--------------------------|--0--------------------1--|
G||-----------------------0--|-----0--------------0-----|
D||-----------0--------2-----|--------2--------2--------|
A||-----0--2--------2--------|-----------2--3-----------|
E||--3-----------0-----------|--------------------------|


                                                      
--------------------------|--------------------------|
--------------------------|--0-----------------------|
-----0-----0-----------0--|--------0-----0-----------|
--2-----2-----------0-----|-----0-----0-----------0--|
-----------------2--------|--------------------2-----|
--------------3-----------|-----------------3--------|


                                                      
--------------------------|--------------------------|
--------------------------|--0--------------------1--|
-----------------------0--|-----0--------------0-----|
-----------0--------2-----|--------2--------2--------|
-----0--2--------2--------|-----------2--3-----------|
--3-----------0-----------|--------------------------|


                                                                                
--------------------------|--2--------------|
-----------------------3--|-----3-----------|
-----0-----0--------2-----|--------2--------|
--2-----2--------0--------|-----------0-----|
--------------0-----------|--------------0--|
--------------------------|-----------------|


Куплет 1 (clean tone)


--------------------------------|
--------------------------0-----|
-----------------------0-----0--|
-----------0--------2-----------|
-----0--2--------2--------------|
--3-----------0-----------------|


                                                      
--------------------------|--------------------------|
-----------------1--------|--------------------0-----|
--------------0--------0--|-----0-----------0--------|
--2--------2--------2-----|--2-----------0--------0--|
-----2--3-----------------|-----------2--------------|
--------------------------|--------3-----------------|


                                                      
--------------------------|--------------------------|
--------------------------|--------------------0-----|
--0-----0-----------------|-----------------0-----0--|
-----0-----------0--------|-----0--------2-----------|
--------------2--------0--|--2--------2--------------|
-----------3--------3-----|--------0-----------------|


                                                       
--------------------------|-----------------2--2-3-2--|
-----------------1--------|--------------3------------|
--------------0--------0--|-----0-----2---------------|
--2--------2--------2-----|--2-----0------------------|
-----2--3-----------------|---------------------------|
--------------------------|---------------------------|


                                                       
-----------------2--2-3-2--|--------------------0-----|
--3-----------3------------|--3--------------1-----1--|
-----2-----2---------------|-----2--------2-----------|
--------0------------------|-----------2--------------|
---------------------------|--------0-----------------|
---------------------------|--------------------------|


                                                       
--------------------3-----|-----------------2--2-3-2--|
-----------------3-----3--|--------------3------------|
--2-----------0-----------|--0--------2---------------|
-----2-----0--------------|-----0--0------------------|
--------2-----------------|---------------------------|
--------------------------|---------------------------|


                                                       
-----------------------0--|--------------------2--2-3-|
--3-----------------1-----|--1--------------3---------|
-----2-----------2--------|-----2--------2------------|
--------0-----2-----------|--------2--0---------------|
-----------0--------------|---------------------------|
--------------------------|---------------------------|


                                                                              
--2--------------------0--|-----------------------0--|-----------2------3----|
-----3--------------0-----|--0-----------------1-----|--1--------3------3----|
--------2--------0--------|-----0-----------0--------|-----0-----2------2----|
--------------2-----------|--------2-----2-----------|--------2--0------0----|
-----------2--------------|-----------3--------------|-----------------------|
--------------------------|--------------------------|-----------------------|


                                                                            
--3----3--2----------|
--3----3--3----------|
--2----2--2----------|
--0----0--0----------|
---------------------|
---------------------|


Куплет 2 (clean tone)

                                                                         
--------------------------------|
--------------------------0-----|
-----------------------0-----0--|
-----------0--------2-----------|
-----0--2--------2--------------|
--3-----------0-----------------|


                                                      
--------------------------|--------------------------|
-----------------1--------|--------------------0-----|
--------------0--------0--|-----0-----------0--------|
--2--------2--------2-----|--2-----------0--------0--|
-----2--3-----------------|-----------2--------------|
--------------------------|--------3-----------------|


                                                      
--------------------------|--------------------------|
--------------------------|--------------------0-----|
--0-----0-----------------|-----------------0-----0--|
-----0-----------0--------|-----0--------2-----------|
--------------2--------0--|--2--------2--------------|
-----------3--------3-----|--------0-----------------|


                                                       
--------------------------|-----------------2--2-3-2--|
-----------------1--------|--------------3------------|
--------------0--------0--|-----0-----2---------------|
--2--------2--------2-----|--2-----0------------------|
-----2--3-----------------|---------------------------|
--------------------------|---------------------------|


                                                       
-----------------2--2-3-2--|--------------------0-----|
--3-----------3------------|--3--------------1-----1--|
-----2-----2---------------|-----2--------2-----------|
--------0------------------|-----------2--------------|
---------------------------|--------0-----------------|
---------------------------|--------------------------|


                                                       
--------------------3-----|-----------------2--2-3-2--|
-----------------3-----3--|--------------3------------|
--2-----------0-----------|--0--------2---------------|
-----2-----0--------------|-----0--0------------------|
--------2-----------------|---------------------------|
--------------------------|---------------------------|


                                                       
-----------------------0--|--------------------2--2-3-|
--3-----------------1-----|--1--------------3---------|
-----2-----------2--------|-----2--------2------------|
--------0-----2-----------|--------2--0---------------|
-----------0--------------|---------------------------|
--------------------------|---------------------------|


                                                                              
--2--------------------0--|-----------------------0--|-----------2------3----|
-----3--------------0-----|--0-----------------1-----|--1--------3------3----|
--------2--------0--------|-----0-----------0--------|-----0-----2------2----|
--------------2-----------|--------2-----2-----------|--------2--0------0----|
-----------2--------------|-----------3--------------|-----------------------|
--------------------------|--------------------------|-----------------------|


                                                                             
--3----3--2----------|
--3----3--3----------|
--2----2--2----------|
--0----0--0----------|
---------------------|
---------------------|


Припев (distortion)


----------0--------|
----------0--------|
----------0--------|
----------2--------|
----------2--------|
----------0--------|



--------------0----|------------------|--2----------------|------------------|
--------------1----|------------------|--3----------------|------------------|
--------------0----|------------------|--2----------------|------------------|
--------------2----|------------------|--0----------------|------------------|
--------------3----|------------------|-------------------|------------------|
--------------0----|------------------|-------------------|------------------|


--0----------------|------2------------|----------0--------|------------------|
--1----------------|------4------------|----------0--------|------------------|
--0----------------|------4------------|----------0--------|------------------|
--2----------------|------4------------|----------2--------|------------------|
--3----------------|------2------------|----------2--------|------------------|
--0----------------|-------------------|----------0--------|------------------|



----------0--------|--------------2----|------------------|--0----------------|
----------1--------|--------------3----|------------------|--1----------------|
----------0--------|--------------2----|------------------|--0----------------|
----------2--------|--------------0----|------------------|--2----------------|
----------3--------|-------------------|------------------|--3----------------|
----------0--------|-------------------|------------------|--0----------------|


------2------------|
------3------------|
------2------------|
------0------------|
-------------------|
-------------------|


Конец припева (clean tone)


                                                                      
--------------------|--------0-----------------|
--------------------|-----1-----1--------------|
--------------------|--2-----------2-----------|
-----------------2--|-----------------2-----2--|
--------------0-----|--------------------3-----|
--------------------|--------------------------|


                                                             
--------0-----------|-------------3--------------|
-----1-----1--------|----------3-----3-----------|
--0-----------0-----|---------0---------0--------|
-----------------2--|------0---------------0-----|
--------------------|---2---------------------2--|
--------------------|----------------------------|

Примечание: в припеве могут быть бока с длительностями аккордов. 16-е ноты в аккорде Dm играть приемом легато.


PS: все замечания дополнения (в т. ч. вокальные партии, партии для второй гитары, бас и ударные)
присылайте по адресу vova_demidrol@yahoo.com

Беспечный ангел Ария Golden Earring - М.Пушкина Кавер-версия песни "Going To The Run" группы "Golden Earring" Вариант 1: Intro Em C G arp.arp.arp. E-------------0---0---3----| B-------------0---1---3----| G-------------0---0---0----| D---------0---2---2---0----| A---0-1/2-----2---3---2----| E-3-----------0-------3----| Em Этот паpень был из тех, C G Кто пpосто любит жизнь. Em Любит пpаздники и гpомкий смех, C D Пыль доpог и ветpа свист. Am G Он был везде и всегда своим, D Am Влюблял в себя целый свет, D Em И гнал всегда свой байк, а не лимузин - C D Таких дpузей больше нет. И в гостиной пpи свечах Он танцевал, как бог. Но зато менялся на глазах, Только вспомнит шум доpог. Все, что имел, тут же тpатил И, за поpог сделав шаг, Мой дpуг давал команду бpатьям, Ввеpх поднимая кулак. Em C D Ты - летящий вдаль, вдаль ангел. C B Em Ты - летящий вдаль, вдаль ангел. C D Ты один только дpуг, дpуг на все вpемена, C D Немного таких сpеди нас. Am C G Ты - летящий вдаль беспечный ангел. Под гитаpный жесткий pок, Котоpый так любил, На Хаpлее он домчать нас мог До небес и звезд любых. Но он исчез и никто не знал Куда тепеpь мчит его байк. Один бpодяга нам сказал, Что он отпpавился в pай. Ты - летящий вдаль, вдаль ангел. Ты - летящий вдаль, вдаль ангел. Но стал союзником pая в ту ночь Пpотив тебя одного. Ты - летящий вдаль, вдаль ангел. Am C G Ты - летящий вдаль беспечный ангел. Ты - летящий вдаль, вдаль ангел. Ты - летящий вдаль, вдаль ангел. Но стал союзником pая в ту ночь Пpотив тебя одного. Ты - летящий вдаль, вдаль ангел. Ты - летящий вдаль беспечный ангел.
Dm B F Этот парень был из тех, кто просто любит жизнь. Dm B C Любит праздники и громкий смех, пыль дорог и ветра свист. Gm F Он был везде и всегда своим, C Gm Влюблял в себя целый свет, C Dm И гнал свой байк, а не лимузин. B C Таких друзей больше нет. И в гостиной при свечах он танцевал как бог. Но зато менялся на глазах, только вспомнит шум дорог. Всё, что имел, тут же тратил. И за порог сделав шаг, Моё друг давал команду братьям, Вверх поднимая кулак. Dm B C Ты - летящий вдаль, вдаль ангел. B A Dm Ты - летящий вдаль, вдаль ангел. B C Ты один только друг, друг на все времена. B C Не много таких среди нас. Gm B F Ты - летящий вдаль беспечный ангел. Под гитарный жесткий рок, который так любил. На Харлее он домчать нас мог до небес и звёзд любых. Но он исчез и никто не знал, Куда теперь мчит его байк. Один бродяга нам сказал, Что он отправился в рай. Ты - летящий вдаль, вдаль ангел. Ты - летящий вдаль, вдаль ангел. Но ад стал союзником рая в ту ночь. Против тебя одного Ты - летящий вдаль беспечный ангел.