Ария: другие аккорды и тексты

Аккорды и текст: Ария - "Бал у князя тьмы"

» Главная
» Аккорды
» Школа игры
» Софт для гитары
» Схемы примочек
» Магазин
» Продам
» Куплю
» Фотографии
» [ne]FORMAT
» Ссылки
» Форум
» Знакомства
» MIDI
» Контакты


»



Бал у князя тьмы

(альбом "Крещение Огнём")

Ария


INTRO
E-----------------------\
H----------------------- \
G------------------------ \
D---------0------------- /  X 8 раз 
A-------0-------------- /
E-----2---------------/

E------------------------------------------/
H------------------------------------------/
D------------------------------------------/
E------0-----0-----0-----0---------------/
G----0-----0-----0-----0-----------------/
A--2-----2-----2-----2-------------------/
Вечер умирал,
E------------------------------------------/
H------------------------------------------/
D------------------------------------------/
E------0-----0-----0-----0---------------/
G----0-----0-----0-----0-----------------/
A--2-----2-----2-----2-------------------/
Наступала ночь,
E-----------------------------------------/
H-----------------------------------------/
D-------0------0-----0------------------/
E-----2------2-----2--------------------/
G---2------2-----2----------------------/
A-----------------------------------------/
Необычный бал
E----------------------------------------/
H----------------------------------------/
D----------------------------------------/
E------0-----0-----0-----0-------------/
G----0-----0-----0-----0---------------/
A--2-----2-----2-----2-----------------/
Грянул во всю мощь...

Стольная Москва
В толк не может взять
Что сюда спешит
Дьявольская знать
E---------------------------------------------------------------------------/
H---------------------------------------------------------------------------/
D------------2-------------2-------------------2-------------------2------/
E-------3--------------3--------------------3------------------3----------/
G--3--------------3--------------------3------------------3---------------/
A---------------------------------------------------------------------------/
Воланд - господин,
E----------------------------------------------------------------------/
H----------------------------------------------------------------------/
D---------4-------------4------------------4------------------4------/
E------5-------------5------------------5------------------5---------/
G--5-------------5-------------------5------------------5------------/
A----------------------------------------------------------------------/
Всетемнейший князь,
E----------------------------------------------------------------------/
H----------------------------------------------------------------------/
D----------2--------------2--------------2-------------------2-------/
E------3---------------3--------------3--------------------3---------/
G--3---------------3---------------3--------------------3------------/
A----------------------------------------------------------------------/
Приказал играть
E------------------------------------------------------------/
H------------------------------------------------------------/
D--------4------------4-----------4----------------2-------/
E-----5------------5------------5---------------2----------/
G--5------------5------------5----------------0------------/
A------------------------------------------------------------/
Свой безумный вальс,
Свой безумный вальс,

E-------------------\
H------------------- \
D-----------2------  \
E--------2---------  / X8 - раз 
G-----0------------ /
A-------------------/

Am
Черной свиты хор
Am
Подхватить готов
Em
Громкую хвалу
Am
Сумеркам богов

Am
Кровь из черепов
Am
Пьют здесь как вино
Em
Каждый здесь нечист,
Am
Каждый обнажен

F
Правит бал мессир -
G
По делам воздаст
F
Всем, кто из могил
G
Прилетел на вальс
E
Прилетел на вальс!

F       Em        Am
Бал у Князя Тьмы
F            Em   Am
Полночь без пяти,
F       Em       
Пять минут,
Am
И душу не спасти...

Вальс гремит на бис,
Вальсу вторит гром
Шабашем ночным
Воздух заражен
И глядит мессир,
Молчалив и горд,
Как ползет огонь
С Воробьевых гор...
Каждому воздаст
По делам его,
Слишком много зла
Здесь на одного,
Здесь на одного!

F       Em     Am
Бал у Князя Тьмы
F            Em    Am
Полночь без пяти,
F       Em  
Пять минут, 
Am
И душу не спасти...
     Am
     Тень... свет... темп убыстряется,
     C
     Жизнь, смерть... перекликаются,
     F                                             G
     Жар, бред, пытка надеждой и злость    
     Am
     Вот вам - казнь и прощение,
     C  
     Все, все, все в восхищении!
     F                                                 G  
     Тень... свет... сердце вдруг оборвалось

                Бал у Князя Тьмы
                F            Em   Am
                Полночь без пяти,
                C           Em  
                Пять минут,
                                Am
                И душу не спасти...

Битое стекло...
Теплая зола...
Здесь на одного
Слишком много зла...