Ария: другие аккорды и тексты

Аккорды и текст: Ария - "1100"

» Главная
» Аккорды
» Школа игры
» Софт для гитары
» Схемы примочек
» Магазин
» Продам
» Куплю
» Фотографии
» [ne]FORMAT
» Ссылки
» Форум
» Знакомства
» MIDI
» Контакты


»



1100

(альбом "Герой асфальта")

Ария



Вступление

E------------------------|------------------------------|
H------------------------|------------------------------|
G------------------------|------------------------------|
D----------------7---9---|---9/-10---9---7---10---9-----|
A---7---9---10-------7---|-----------------------10-----|
E------------------------|------------------------------|

E--------------------------|----------------------------|
H--------------------------|----------------------------|
G--------------------------|----------------------------|
D---9-\7-------------------|----------------------------|
A---------10---9---10---7--|---10-\9---7------------2---|
E-----------------------5--|---------------11---7---2---|

E--------------------------|----------------------------|
H--------------------------|----------------------------|
G--5--5--5--5--5--5-----8--|--5--5--5--5--5--5----------|
D--5--5--5--5--5--5--6--8--|--5--5--5--5--5--5--6--8----|
A--3--3--3--3--3--3--6--6--|--3--3--3--3--3--3--6--8----|
E--------------------4-----|--------------------4--6----|

E--------------------------|----------------------------|
H--------------------------|----------------------------|
G--5--5--5--5--5--5--------|----------------------------|
D--5--5--5--5--5--5--6--8--|--5---6---5---3-------------|
A--3--3--3--3--3--3--6--8--|--------------------6-------|
E--------------------4--6--|------------------4---6-8---|

Cm                 Ab
 Hе дотянем мы до полночи
Eb                      G7
 Hас накрыл зенитный шквал 
 Смысла нет взывать о помощи
 Жжет руки штурвал
 Режет небо луч прожектора
 Рядом - "черные кресты"
 Обгораем в этом пекле мы
 А штурман просит высоты...

Припев:
   Am7          F           Dm
  Тысяча сто, тысяча сто, тысяча сто
    E7
  Смерть в лицо нам дышит
  Тысяча сто, тысяча сто, тысяча сто.

Наш стрелок был сущим дьяволом,
Он не думал умирать.
Черный крест заходит справа нам,
Но некому стрелять!
То ли пламя, то ли ненависть
Ослепляет тех, кто жив.
Нам в такой конец не верилось,
А штурман твердит как мотив...

Припев.

На земле - стальное крошево.
Здесь вершится правый суд.
Чтобы все оставить прошлому,
Нам хватит двух минут.
Мы летим к земле как молния,
Проклиная всех святых.
Жаль, что в будущем безмолвии
Нет этой высоты...

Припев.