Алиса: другие аккорды и тексты

Аккорды и текст: Алиса - "Веретено"

» Главная
» Аккорды
» Школа игры
» Софт для гитары
» Схемы примочек
» Магазин
» Продам
» Куплю
» Фотографии
» [ne]FORMAT
» Ссылки
» Форум
» Знакомства
» MIDI
» Контакты


»



Веретено

Алиса



V1:   
1 |-17---15---17---15--------17---15---17---15-------|  
2 |---------------------15-----------------------15--| 
 
                            
1 |-13---11---13---11--------13---11---13---11-------|  
2 |---------------------11-----------------------11--| 


V2:
1 |--------------------------------5----3-------|   
2 |--3---------------------------------------3--|  
3 |-------0----2----3----5----7-----------------|  
 

1 |--5----3----------------------|    
2 |------------1---------1-------|   
3 |-----------------3---------3--|  
 

V3:
1 |-----|--5--|--3--|-----|-----|-----|--5--|--6--|--5--|   
2 |--3--|-----|-----|--3--|-----|--3--|-----|-----|-----|  
3 |-----|-----|-----|-----|--5--|-----|-----|-----|-----|  


1 |------10----8-------------------6----8----6--|   
2 |--8--------------8---------------------------|  
3 |----------------------7----8-----------------|  



Ch: Gm Cm F(на VIII ладу) Dm(на V ладу)

V1 (2 раза)

Gm   Cm    F          Dm
Облака гонит осень туман
Над водой золотой караван
По лесам заплутали дожди
С ними я, до капели не жди 

Припев:


      Gm           Cm  F               Dm
Опять игра, опять кино, снова выход на бис.
Плетет судьбу веретено за четою кулис.
Когда-нибудь замедлить бег, и уже не спеша
Увидеть, как берет разбег душа.

V2 (2 раза)

Снег летит, кружит время метель
Над землей белая канитель
По весне ливни ринуться в бой
С ними я возвращаюсь домой

Припев.

V3 (2 раза)

Припев.

V1 (2 раза)

Соло для припева:
        3 |-5--7--5--7--5--7--5--7-|
Опять игра       
        3 |-5--7--5--7--5--7--5--7-|
Опять кино 
3 |-5--7--5--7--5--7--5--7-|  |-8--10--8--10--8--10--8--10-|
  Снова        выход      на   бис 

И так весь припев.