Аквариум: другие аккорды и тексты

Аккорды и текст: Аквариум - "Город золотой"

» Главная
» Аккорды
» Школа игры
» Софт для гитары
» Схемы примочек
» Магазин
» Продам
» Куплю
» Фотографии
» [ne]FORMAT
» Ссылки
» Форум
» Знакомства
» MIDI
» Контакты


»



Город золотой

Аквариум



Fill 1
------------------|---0------------0-|---1-0-----------|-1-0---------|
---1-0-------01---|-----3-1-0-1-13---|-------3-1-0-1-3-|-----3-1-3-0-|
-------2-1-2----2-|------------------|-2---------------|-------------|
-2----------------|-2----------------|---0-------------|-------------|
---0-------0------|---0-------0------|-----------------|-------------|
------------------|------------------|-----------------|---0-------0-|

------------------|---0------------0-|---1-0-----------|-1-0---------|
---1-0-------01---|-----3-1-0-1-13---|-------3-1-0-1-3-|-----3-0-1---|
-------2-1-2----2-|------------------|-2---------------|-----------2-|
-2----------------|-2----------------|---0-------------|-------------|
---0-------0------|---0-------0------|-----------------|-----------0-|
------------------|------------------|-----------------|---0---------|
End of Fill 1

Fill 2
--3-3--------------3--3-1-0-1-5------1--1------------1----1-0-0-3--------
------------2------------------------------------3-----------4------0----
----------0-----0---------2-------4------------0---0--------------0---0--
--------2-----2-------0---------3------------0---------0-----------------
------0------------------------------------2--------------3--------------
----------------------------------------3--------------------------------

-----------5---10--8--7--5--5----------4---------------
--------6------10-----8--6--6----6-----3-----3---------
-----7---------10-----------5--5---5---4---4---4-------
- ---0-----------9------------7----------2---------------
-------------------------------------------------------
-------------------------------------------------------

-----------5---10--8--7--5--5--------4--5--------------
--------6------10-----8--6--6-----6--3--5----5---------
-----7---------10-----------5---5----4--5--5-----------
- ---0-----------9------------7--------2-----------------
--------------------------------------------------7----
----------------------------------------------------0--
End of Fill 2

___________________________________________________________________


with Fill 1
 a   c h   a g# a h^c^a c     e d   c h c  c^h^e
Под небом голубым       есть город золотой       | Здесь соло паpтия идет
    e  f  e d  c h c d e^f e  de   d  h  g#^e    |
С прозрачными воротами   и ясною звездой,
     Am  E      Am
А в городе том сад, все травы да цветы,
   Dm                  E7        Am
Гуляют там животные невиданной красы:

with Fill 2
     A7            Dm
  Одно, как желтый огнегривый лев,
      G          C
  Другое вол, исполненный очей,
     Dm                  F  E
  С ними золотой орел небесный,
                             FE Am/ e c h a g# a
  Чей так светел взор незабываемый.

Fill 1

with Fill 1
А в небе голубом горит одна звезда.
Она твоя, о ангел мой, она твоя всегда.
Кто любит, тот любим. Кто светел, тот и свят.
Пускай ведёт звезда тебя дорогой в дивный сад.

with Fill 2
Тебя там встретит огнегривый лев
И синий вол, исполненный очей,
С ними золотой орёл небесный,
Чей так светел взор незабываемый.

1-st takt of Fill 1