Агата Кристи: другие аккорды и тексты

Аккорды и текст: Агата Кристи - "Как на войне"

» Главная
» Аккорды
» Школа игры
» Софт для гитары
» Схемы примочек
» Магазин
» Продам
» Куплю
» Фотографии
» [ne]FORMAT
» Ссылки
» Форум
» Знакомства
» MIDI
» Контакты


»



Как на войне

(альбом "Позорная Звезда")

Агата Кристи


Am G C E

Ляг, отдохни, и послушай, что я скажу:
Я терпел, но сегодня я ухожу.
Я сказал: успокойся и рот закрой.
Вот и все, до свидания, черт с тобой.

     Я на тебе, как на войне,
     А на войне, как на тебе.
     Но я устал, окончен бой,
     Беру портвейн, иду домой.
     Окончен бой, зачах огонь
     И не осталось ничего.
     А мы живем и нам с тобою
     Повезло на зло.

Боль, это боль, как ее ты не назови.
Это страх, там где страх, места нет любви.
Я сказал: успокойся и рот закрой.
Вот и все, до свидания, черт с тобой.

     Я на тебе, как на войне,
     А на войне, как на тебе.
     Но я устал, окончен бой,
     Беру портвейн, иду домой.
     Окончен бой, зачах огонь
     И не осталось ничего.
     А мы живем и нам с тобою
     Повезло на зло.


    Как на войне[tabs]

g|---------|---------------|---------------|----------------|-------|
d|---------|---------------|---------------|-----0-2---0-2--|-0-----|
a|-0-----0-|---0-----------|-------3---0-3-|-0-2-----2------|---2---|
e|---0-3---|-0---4-3-0-2-3-|-0-2-3---3-----|----------------|-----3-|

Riff 1:

  Am    G        C7        E         Am        G         C7        E
e|--0--------3-1-0-------------------------0---------3-1-0---------0----4----|
B|----1-0------------3-1-3-0---0-1-0---------1-0-------------3-1-3-----------|
G|-2--------0------------------------2-------------0-------------------------|
D|---------------------------------------2-----------------------------------|
A|---------------------------------------------------------------------------|
E|---------------------------------------------------------------------------|

Riff 2:

  Am                G                C                E
e|---------------------------------------------------------------------|
B|---------------------------------------------------------------------|
G|---------------------------------------------------------------------|
D|-----------------------------------0-----0------0-2-4---2-4----2-0---|
A|-2---0-2------2-1-0-----0--------0---0-2------4-------4------------4-|
E|---2--------2-------2-4------2-4-------------------------------------|


Chord Progression:

Verse:
Am G Am E

Chorus:
Am G C E
7. Как на войне


Am G C E

Ляг, отдохни, и послушай, что я скажу:
Я терпел, но сегодня я ухожу.
Я сказал: успокойся и рот закрой.
Вот и вся, до свидания, чярт с тобой.

     Я на тебе, как на войне,
     А на войне, как на тебе.
     Но я устал, окончен бой,
     Беру портвейн, иду домой.
     Окончен бой, зачах огонь
     И не осталось ничего.
     А мы живем и нам с тобою
     Повезло на зло.

Боль, это боль, как ея ты не назови.
Это страх, там где страх, места нет любви.
Я сказал: успокойся и рот закрой.
Вот и вся, до свидания, чярт с тобой.

     Я на тебе, как на войне,
     А на войне, как на тебе.
     Но я устал, окончен бой,
     Беру портвейн, иду домой.
     Окончен бой, зачах огонь
     И не осталось ничего.
     А мы живем и нам с тобою
     Повезло на зло.