Агата Кристи: другие аккорды и тексты

Табулатура: Агата Кристи - "Сказочная Тайга"

» Главная
» Аккорды
» Школа игры
» Софт для гитары
» Схемы примочек
» Магазин
» Продам
» Куплю
» Фотографии
» [ne]FORMAT
» Ссылки
» Форум
» Знакомства
» MIDI
» Контакты


»



Сказочная Тайга

(альбом "Опиум для никого")

Агата Кристи


Вступление и проигрыш:
Dm Gm A F 


1-------------------|-------------------|-------------------|-------------------|
2-------------------|-------------------|-------------------|-------------------|
3---------------5---|-------------------|-------------------|-------------------|
4-----------7-------|---8---------------|---7-----------8---|---7---------------|
5---5---5-----------|-------------------|-------4---7-------|-------------------|
6-------------------|-------------------|-------------------|-------------------|

Dm G A Dm
1-------------------|-------------------|-------------------|-------------------|
2-------------------|-------------------|-------------------|-------------------|
3---------------5---|---4---------------|---6---------------|---7---------------|
4-----------7-------|-------------------|-------------------|-------------------|
5---5---5-----------|-------------------|-------------------|-------------------|
6-------------------|-------------------|-------------------|-------------------|

Соло 1
Em Am H G
1-------------------|-------------------|-------------------|-------------------|
2-------------------|-------------------|-------------------|-------------------|
3-------------------|---2---------------|-------------------|-------------------|
4--5--4--2--4--5----|-------5---2-------|--4--2-----2--4----|--5--4-------------|
5-------------------|-------------------|--------6----------|--------5----------|
6-------------------|-------------------|-------------------|-------------------|

Em A H Am
1-------------------|-------------------|-------------------|-------------------|
2-------------------|-------------------|-----------4-------|--5----------------|
3-------------------|--4--2-------------|--------4----------|-------------------|
4-----2--4--5-------|--------2----------|--5--4-------------|-------------------|
5--2----------------|-------------------|-------------------|-------------------|
6-------------------|-------------------|-------------------|-------------------|

Соло 2 играется так же, как соло 1, только на октаву выше (аккорды те же самые)
Em Am H G
1-------------------|--5----------------|-------------------|-------------------|
2--8--7--5--7--8----|-----8--5----------|--7--5-----5--7----|--8--7-------------|
3-------------------|-------------------|--------8----------|--------7----------|
4-------------------|-------------------|-------------------|-------------------|
5-------------------|-------------------|-------------------|-------------------|
6-------------------|-------------------|-------------------|-------------------|

Em A H Am
1-------------------|-------------------|--------7--11------|--12---------------|
2-----5--7--8-------|--7--5-------------|--8--7-------------|-------------------|
3--4----------------|--------5----------|-------------------|-------------------|
4-------------------|-------------------|-------------------|-------------------|
5-------------------|-------------------|-------------------|-------------------|
6-------------------|-------------------|-------------------|-------------------|


B - это си-бемоль, а си обозначается H

Другой вариант: Сказочная Тайга [tabs]
Dm Gm A F Dm G A Dm
|-----------5-8-6-------5-------6-5-------------5-8-7-----9-----10---------
|-----------------------------5--------------------------------------------
|-----7---7-----------------6-------------7---7----------------------------
|--------------------------------------------------------------------------
|--------------------------------------------------------------------------
|--------------------------------------------------------------------------


Такой еще ход. Соло.
A7 Em F/E B/E Em7
|----5-5---------------|--------------------------------------------------|
|--------8-8-6-6-5-5---|--8--7-----7-8-10-8--------7----------7-8-7-------|
|----------------------|--------9------------9--------9--8--9--------7----|
|----------------------|--------------------------------------------------|
|----------------------|--------------------------------------------------|
|----------------------|--------------------------------------------------|


Втор
Em A B7
|----0-----------------0--------------11-|--12\----|
|-0-------------12-10--------------12----|---------|
|-------11--12-------------12--11--------|---------|
|----------------------------------------|---------|
|----------------------------------------|---------|
|----------------------------------------|---------|