Агата Кристи: другие аккорды и тексты

Аккорды и текст: Агата Кристи - "Медленный бой"

» Главная
» Аккорды
» Школа игры
» Софт для гитары
» Схемы примочек
» Магазин
» Продам
» Куплю
» Фотографии
» [ne]FORMAT
» Ссылки
» Форум
» Знакомства
» MIDI
» Контакты


»



Медленный бой

Агата Кристи

слова: Глеб Самойлов, музыка: Глеб Самойлов
год: 2000
подбор: Нт, email: nmisan@rambler.ru

E||------------------|---------3--3------7--|--7----------------|
B||------------------|--3-------------------|-------------------|
G||------------------|----------------------|-------------------|
D||------------------|----------------------|-------------------|
A||------------------|----------------------|-------------------|
E||------------------|----------------------|-------------------|
                        Но-   чью над   зем-  лей

                                                                     
---------5--5------10--|--10----------------|-----------------------|
-----------------------|--------------------|--10------8--8------7--|
--7--------------------|--------------------|-----------------------|
-----------------------|--------------------|-----------------------|
-----------------------|--------------------|-----------------------|
-----------------------|--------------------|-----------------------|
 ан-    ге-лы      ле-   тят                  Над     Йе-ру-    са-

                                                                  
----------------------|-------------------|--12--------10--------|
--7----5----5----3----|--3----------------|----------------------|
----------------------|-------------------|----------------------|
----------------------|-------------------|----------------------|
----------------------|-------------------|----------------------|
----------------------|-------------------|----------------------|
 ли-  мом   и   Моск-   вой!

                                                                           
--------------------------|--------------------|----------------------10--|
----------------------12--|--12----------------|----------10--10----------|
----------12--12----------|--------------------|--------------------------|
--12----------------------|--------------------|--12----------------------|
--------------------------|--------------------|--------------------------|
--------------------------|--------------------|--------------------------|
 Все      о- ни       ле-   тят                   Все     о-  ни      сле-

                                                                         
--10----------------|--10------9--9------10--|--10----11----12----13----|
--------------------|------------------------|--------------------------|
--------------------|------------------------|--------------------------|
--------------------|------------------------|--------------------------|
--------------------|------------------------|--------------------------|
--------------------|------------------------|--------------------------|
 дят                  Все      о-ни     ве-    дут    не-   зри- мый

                                                                       
--14----------------|----------14----14----14----|--14----------------|
--------------------|----------------------------|--------------------|
--------------------|----------------------------|--------------------|
--------------------|----------------------------|--------------------|
--------------------|----------------------------|--------------------|
--------------------|----------------------------|--------------------|
  бой!                        Мед-  лен-  ный      бой

                                                                           
----------16----14----16----|--14--------13--------|--15--------14--------|
----------------------------|----------------------|----------------------|
----------------------------|----------------------|----------------------|
----------------------------|----------------------|----------------------|
----------------------------|----------------------|----------------------|
----------------------------|----------------------|----------------------|
          за    нас  с_то-     бо-       ой!

  ~           ~                    ~                   
--17----16----19----17----|--16----19----17----16----|
--------------------------|--------------------------|
--------------------------|--------------------------|
--------------------------|--------------------------|
--------------------------|--------------------------|
--------------------------|--------------------------|
Проигрыш...

  ~                 ~                                                       
--19----17----16----19----|--20--------19--------|--22--------20--------|
--------------------------|----------------------|----------------------|
--------------------------|----------------------|----------------------|
--------------------------|----------------------|----------------------|
--------------------------|----------------------|----------------------|
--------------------------|----------------------|----------------------|


  ~           ~                    ~                   
--------------19----17----|--16----19----17----16----|
--22----21----------------|--------------------------|
--------------------------|--------------------------|
--------------------------|--------------------------|
--------------------------|--------------------------|
--------------------------|--------------------------|


  ~                 ~                                                      
--19----17----16----19----|--20--------19--------|--22--------20--------|
--------------------------|----------------------|----------------------|
--------------------------|----------------------|----------------------|
--------------------------|----------------------|----------------------|
--------------------------|----------------------|----------------------|
--------------------------|----------------------|----------------------|


                                                                       
--20----------------|----------------------|--------------------------|
--------------------|----------------------|--------------------------|
--------------------|------------19--------|--------------------------|
--------------------|--19------------------|--19------17--17------16--|
--------------------|----------------------|--------------------------|
--------------------|----------------------|--------------------------|


                                                                       
--------------------------|--------------------|--12--------10--------|
--------------------------|--------------------|----------------------|
--------------------------|--------------------|----------------------|
--16----14----14----12----|--12----------------|----------------------|
--------------------------|--------------------|----------------------|
--------------------------|--------------------|----------------------|


                                                                   
----------------------|--------------------|----------------------|
----------------------|--12----------------|------------10--------|
------------12--------|--------------------|----------------------|
--12------------------|--------------------|--12------------------|
----------------------|--------------------|----------------------|
----------------------|--------------------|----------------------|


                                                                         
--10----------------|--10------9--9------10--|--10----11----12----13----|
--------------------|------------------------|--------------------------|
--------------------|------------------------|--------------------------|
--------------------|------------------------|--------------------------|
--------------------|------------------------|--------------------------|
--------------------|------------------------|--------------------------|


                                                                       
--14----------------|----------14----14----14----|--14----------------|
--------------------|----------------------------|--------------------|
--------------------|----------------------------|--------------------|
--------------------|----------------------------|--------------------|
--------------------|----------------------------|--------------------|
--------------------|----------------------------|--------------------|
                              Мед-  лен-  ный      бой

                                                                           
----------16----14----16----|--14--------13--------|--15--------14--------|
----------------------------|----------------------|----------------------|
----------------------------|----------------------|----------------------|
----------------------------|----------------------|----------------------|
----------------------------|----------------------|----------------------|
----------------------------|----------------------|----------------------|
          за    нас  с_то-     бо-       ой!

  ~           ~                    ~                     
--17----16----19----17----|--16----19----17----16----|
--------------------------|--------------------------|
--------------------------|--------------------------|
--------------------------|--------------------------|
--------------------------|--------------------------|
--------------------------|--------------------------|
Проигрыш...

  ~                 ~                                                      
--19----17----16----19----|--20--------19--------|--22--------20--------|
--------------------------|----------------------|----------------------|
--------------------------|----------------------|----------------------|
--------------------------|----------------------|----------------------|
--------------------------|----------------------|----------------------|
--------------------------|----------------------|----------------------|


  ~           ~                    ~                    
--------------19----17----|--16----19----17----16----|
--22----21----------------|--------------------------|
--------------------------|--------------------------|
--------------------------|--------------------------|
--------------------------|--------------------------|
--------------------------|--------------------------|


  ~                 ~                                                     
--19----17----16----19----|--20--------19--------|--22----------------||
--------------------------|----------------------|--------------------||
--------------------------|----------------------|--------------------||
--------------------------|----------------------|--------------------||
--------------------------|----------------------|--------------------||
--------------------------|----------------------|--------------------||





------------------------------------------------------
Песня исполненная Глебом Самойловым в день его 30-летия в клубе.