The Beatles:

: The Beatles - "Drive My Car"










[ne]FORMAT



MIDI







Drive My Car

The Beatles


-|------------------7---------------------7----------------------
-|---------------------------------------------------------------
-|---------------------------------------------------------------


Verse:
      Asked a girl    what she wanted to be
    D                            G
-|---------------------------------------------------------------
-|---------------------------------------------------------------
-|---------------------------------------------------------------
-|-----------------7---------------------------------------------
-|--5---------7/9-----9\7--5---------------------5---------------
-|-----------------------------3------------5/7-----7\5--3-------

     She said baby             Can't you see
    D                            G
-|---------------------------------------------------------------
-|---------------------------------------------------------------
-|---------------------------------------------------------------
-|-----------------7-------------------------------------
-|--------------------7-------------------------------------------
-|--5------------7/9-----9\7--5------------------------5----------
-|--------------------------------3---------------5/7-----7\5--3--

    But you can do something in between
         A                                            Bm
-|----------------------------------------------------------------
-|----------------------------------------------------------------
-|----------------------------------------------------------------
-|----------------------------------------------------------------
-|-----------7--7-----7--7----------------7--9--7-----------------
-|-----------5--5-----5--5-----------7/9-----------9--7-----------


Chorus:
    Bm                       A  G                    A
    Baby you can drive my       car    (see note)
-|------------------------------------------------------------
-|---------------------------------3-----5--6--5-----3--------
-|---------------------------------4-----5--7--5-----4-----7------7--5--3-----3-----3-----3--5--------

    Bm                    A  G                    A
    Yes I'm gonna be a      star
-|---------------------------------------------------------
-|------------------------------3-----5--6--5-----3--------
-|------------------------------4-----5--7--5-----4--------
-|--9-------9-----9----9--7--5-----5-----5-----5--7--------
-|--9-------9-----9----9--7--5-----5-----5-----5--7--------
-|--7-------7-----7----7--5--3-----3-----3-----3--5--------

     Bm
    Baby you can drive my car
-|--------------------------------
-|--------------------------------
-|--------------------------------
-|--9-----9--------9-----9--------
-|--9-----9--------9-----9--------
-|--7-----7--------7-----7--------

    Em           A           D     G               A
             And baby  I love you
-|---------------------------------------------------------------------
-|---------------------------------------------------------------------
-|-----------------------t Chorus:

 A                      D
Beep beep 'm beep beep YEAH!

Guitar solo:
        D                           G
-|------------b(10)8-------------------------------
-|-----------------------b(10)8--6--8--8--8--6--8--
-|-----6b(7)----------7----------------------------
-|--7----------------------------------------------
-|-------------------------------------------------
-|-------------------------------------------------

        D                           G
-|------------b(10)8-------------------------------
-|-----------------------b(10)8--6--8--8--8--6-----
-|-----6b(7)----------7-------------------------7--
-|--7----------------------------------------------
-|-------------------------------------------------
-|-------------------------------------------------

        D                           G
-|------------b(10)8-------------------------------
-|-----------------------b(10)8--6--8--8--8--6--8--
-|-----6b(7)----------7----------------------------
-|--7-----------------
-|----------------------------------------------------------
-|----------------------------------------------------------


Repeat chorus:


Verse:
Told that girl I could start right away
She said listen to me baby I got something to say
I got no car and it's breaking my heart
But I got a driver and that's a start


Repeat chorus:


Ending (repeat to fade):
                            D   G               A   
    Beep beep 'm beep beep YEAH!
-|---------------------------------------------------------------------
-|---------------------------------------------------------------------
-|---------------------------------------------------------------------
-|---------------------------------------------------------------------
-|--------------------------5--------5------------------7--9--7-----5--
-|------------------------------5/7-----7\5--3--5--7/9-----------9-----