System Of A Down:

: System Of A Down - "War?"










[ne]FORMAT



MIDI







War?

System Of A Down


Intro
|-------------------|------------------|-----------------|
|-------------------|----------8--8----|-----------------|
|--8-7-8-7-x-x-x-x--|--8-7-8-7---7--7--|--x-x-x-x-x-x-x--|
|-------------------|------------------|-----------------|
|-------------------|------------------|-----------------|
|-------------------|------------------|-----------------|

Chorus/Outro
|-----------------------------|-----------------------------|
|-----------------------------|-----------------------------|
|-----------------------------|-----1010---------1111-------|
|--0--6-0-0-6-0--0-8-0-0-6-0--|--0-------0--8-0-0-----0-----|
|--0--6-0-0-6-0--0-8-0-0-6-0--|------8-8-0--8-0-0-9-9-0-----|
|--0--6-0-0-6-0--0-8-0-0-6-0--|--0-------0--8-0-0-----0-----|

Verse
|-----------|-----------|-------------------|-------------------|
|-----------|-----------|-------------------|-------------------|
|-----------|-----------|-------------------|-------------------|
|--1-0-1-0--|--0-5-0-5--|--1-0-1-0-x-x-x-x--|--x-x-x-x-x-x-x-x--|
|--1-0-1-0--|--0-5-0-5--|--1-0-1-0-x-x-x-x--|--x-x-x-x-x-x-x-x--|
|--1-0-1-0--|--0-5-0-5--|--1-0-1-0-x-x-x-x--|--x-x-x-x-x-x-x-x--|

Bridge
|-------------------|-----------|-----------|
|--x-6-----------6--|--x-6------|--------6--|  ** Palm Mute Throughout
|------8-7-x-7-8----|------8-7--|--x-7-8----|
|-------------------|-----------|-----------|
|-------------------|-----------|-----------|
|-------------------|-----------|-----------|