System Of A Down:

: System Of A Down - "Suite-pee"










[ne]FORMAT



MIDI







Suite-pee

System Of A Down


=slide, b=bend, r=release bend 

Intro
|-------------------------------------------|
|-------------------------------------------|
|--752/5/7--------------------------------|  Natural Harmonics
|-----------752/5/7----------752/5/7----|  & tremolo picking
|--------------------752/5/7--------------|
|-------------------------------------------|

Chorus
|-------------------------------------------|
|-------------------------------------------|
|-------------------------------------------|
|-------------------------------------------|
|----0000101-0000101-0000101-000010-12b-----|
|----0000101-0000101-0000101-000010-12b-----|

|-------------------------------------------|
|-------------------------------------------|
|-------------------------------------------|
|-------------------------------------------|
|----0000101-0000101-0000101-0000-12-0-----|
|----0000101-0000101-0000101-0000-12-0-----|

Verse
|--------------------10b--------------------|
|-------------------------------------------|
|-----7777878-777787------------------------|
|-------------------------------------------|
|-------------------------------------------|
|-------------------------------------------|

Interlude
|-------------------------------------------|
|-------------------------------------------|
|-------------------------------------------|
|-------------------------------------------| 
|--0-1-0--0-5-4-----------------------------|
|--0-1-0--0-5-4-----------------------------|

|-------------------------------------------|
|-------------------------------------------|
|-------------------------------------------|
|--5-4br------------------------------------|
|-------------------------------------------|
|-------------------------------------------|

|-------------------------------------------|
|-------------------------------------------|
|-------------------------------------------|
|--0-1-0--0--5-4------0-1-0--0-5-4--4*------|
|-------------------------------------------|
|-------------------------------------------|