System Of A Down:

: System Of A Down - "Sugar"










[ne]FORMAT



MIDI







Sugar

System Of A Down


Intro/Chorus/Outro
|---------|---------|
|---------|---------|
|---------|---------|
|-0-7-6-5-|-0-6-5-5-|
|-0-7-6-5-|-0-6-5-5-|
|-0-7-6-5-|-0-6-5-5-|

Verse
|-----13--13-12--------10--10-|
|---10------------13--10--------|
|-------------------------------|
|-------------------------------|
|-------------------------------|
|-------------------------------|

|-----13--13-12--------10----10----10----|
|-10------------13--10----10----10----10-|
|----------------------------------------|
|----------------------------------------|
|----------------------------------------|
|----------------------------------------|

Interlude
|------------|
|------------|
|------------|
|-0------1-0-|
|-0------1-0-|
|-0------1-0-|

Outro
|---------------------|
|---------------------|
|---------------------|
|-7-0-0-1-0-7-0-0-0-|
|-7-0-0-1-0-7-0-0-0-|
|-7-0-0-1-0-7-0-0-0-|