System Of A Down:

: System Of A Down - "Spiders"










[ne]FORMAT



MIDI







Spiders

System Of A Down


Intro/Verse
|---------------------------| 
|---------------------------| 
|---------------------------| x2
|---------------------------|  
|---7---7---5---5---55------| 
|-0---0---0---0---0---------| 

|------------------------------------------------------| 
|------------------------------------------------------|
|------------------------------------------------------|  
|------------------------------------------------------| 
|---8---7---10---8---78--------7---7---5---5---55------| 
|-0---0---0----0---0---------0---0---0---0---0---------| 


Chorus
|--------------------------------|
|--------------------------------|
|--------------------------------|
|--------------------------------|
|-101010101010101010101010101010-|
|-101010101010101010101010101010-|

|-------------------------------------------------------|
|-------------------------------------------------------|
|-------------------------------------------------------|
|-------------------------------------------------------|
|---12---10---13---12---10-12---10---10-12---8---8---88-|
|-0----0----0----0----0-------0----0-------0----0---0---|

|-----------------------------------|
|-----------------------------------|
|-----------------------------------|
|-888888888888888--7777777777777777-|
|-888888888888888--7777777777777777-|
|-888888888888888--7777777777777777-|


Solo
|----------------------------------------------------------------------|
|----------------------------------------------------------------------|
|-1414141414141414141414-1515151515151515151515-1818181818181818181818-|
|----------------------------------------------------------------------|
|-1212121212121212121212-1313131313131313131313-1616161616161616161616-|
|----------------------------------------------------------------------|

|----------------------------------------------------------------------|
|----------------------------------------------------------------------|
|-1919191919191919191919-2020202020202020202020-1818181818181818181818-|
|----------------------------------------------------------------------|
|-1717171717171717171717-1818181818181818181818-1616161616161616161616-|
|----------------------------------------------------------------------|