System Of A Down:

: System Of A Down - "Soil"










[ne]FORMAT



MIDI







Soil

System Of A Down


Intro
|-----|
|--10-|
|--10-|
|--10-|         
|--8--|
|-----|

Verse 1
|---------------------|
|---------------------|
|---------------------|
|--3-1-0-3-1-0-0--0-0-|
|--3-1-0-3-1-0-0--0-0-| x8
|--3-1-0-3-1-0-0--0-0-|

Verse 2
|---------------------|
|---------------------|
|---------------------|
|--3-1-0-3-1-0-0--0---| x16
|--3-1-0-3-1-0-0--0---|
|--3-1-0-3-1-0-0--0---|
   -------PM-------

Verse 3
|---------------------------------|
|---------------------------------|
|--------5/7-7-7------------------|
|--0--0--5/7-7-7)-3-1-0-3-1-0-0-0-| x4
|--0--0----------(3-1-0-3-1-0-0-0-|
|--0--0----------(3-1-0-3-1-0-0-0-|

Verse 4
|-------------|----|----|----|
|-----------9-|-12-|-11-|-13-|
|-----------7-|-10-|--7-|-13-|
|--0----------|----|----|-13-| x1
|--0----------|----|----|----|
|--0----------|----|----|----|

Bridge
|------|------------|
|------|------------|
|------|------------|
|--0-0-|-0--0--0--0-|
|--0-0-|-0--0--0--0-|
|--0-0-|-0--0--0--0-|

Verse 5
|--------------10--10--10--10-|-10-|
|-----------------------------|----|
|--7--7--7--7-----------------|----|
|-----------------------------|----|
|-----------------------------|----|
|-----------------------------|----|

Pre-Solo
|--10----10-12-13---12-13-15-------|
|--10------------------------------|
|--10------------------------14^---|
|----------------------------------|
|----------------------------------|
|----------------------------------|
1/2 --

Solo
|--------------------------------------------------------------------------|
|--------------------------------------------------------------------------|
|--------------------------------------------------------------------------|
|-----3----3----3----3----3----3----3----3---------------------------------|
|--3h5--3h5--3h5--3h5--3h5--3h5--3h5--3h5----------------------------------|
|--------------------------------------------------------------------------|

|----------------|--------------------------------------------------^------|
|----------------|----------------------------------------------11-13-10---|
|---------x--x-x-|------10-----10-----10-----10------10-12^-1212--------10-|
|---------x--x-x-|-10h12--10h12--10h12--10h12---10h12----------------------|
|--3h5----x--x-x-|---------------------------------------------------------|
|----------------|---------------------------------------------------------|
             however many times

|-----------10-----------10-------------10-----------------^-----------------------|
|--------10-----------10-------------10-------------------13--11/-1919191919191919-|
|-----10-----------10-------------10--------------10-12----------------------------|
|--12-----------12-------------12-----------10h12----------------------------------|
|----------------------------------------------------------------------------------|
|----------------------------------------------------------------------------------|

|------------------------------------------------------------------|
|------------------------------------------------------------------|
|-11/121211118877/88/1111h121111/1212/15151414121211118877-|
|-10/111110107766/77/1010-111010/1111/14141313111110107766-|
|------------------------------------------------------------------|
|------------------------------------------------------------------|
      be carful how to read this bit

|------------------------------------------------------------------|
|------------------------------------------------------------------|
|-11/121211118877/88/1111h121111/1212/15151414121211118877-|
|------------------------------------------------------------------|
|------------------------------------------------------------------|
|------------------------------------------------------------------|

|-14/1515141411111010/1111/1414h1515/1818171715151414111010|
|------------------------------------------------------------------|
|------------------------------------------------------------------|
|------------------------------------------------------------------|
|------------------------------------------------------------------|
|------------------------------------------------------------------|