System of a down: другие аккорды и тексты

Табулатура: System of a down - "Roulette"

» Главная
» Аккорды
» Школа игры
» Софт для гитары
» Схемы примочек
» Магазин
» Продам
» Куплю
» Фотографии
» [ne]FORMAT
» Ссылки
» Форум
» Знакомства
» MIDI
» Контакты


»



Roulette

(альбом "Steal this album!")

System of a down

слова: System of a down, музыка: System of a down
год: 2002

1:-------------------------------|-------------------------------|
2:----6------6---/--10-------5---|-----8------8------3-------5---|
3:-------------------------------|-------------------------------|
4:-------------------------------|-------------------------------|
5:-5----5--5---5-/8-----0-3----3-|/-6----6--6---0-1----1--3----3-|
6:-------------------------------|-------------------------------|

B
1:-----------------------------|------------------------------|
2:----6------6------2------2---|----5------5------3-------5---|
3:-----------------------------|------------------------------|
4:-----------------------------|------------------------------|
5:-5----5--5---5-0----0--0---0-|-3----3--3---0-1----1--3----3-|
6:-----------------------------|------------------------------|

На второй гитаре

1:-10---10-12-13---12-13-15----12-13-15-13--12/10--12--13--12--10-|
2:----------------------------------------------------------------|
3:----------------------------------------------------------------|
4:----------------------------------------------------------------|
5:----------------------------------------------------------------|
6:----------------------------------------------------------------|

1:-10------------------------------------------------------------5/6/5--5--3--3--1--1|
2:------10--10----10-11-13-11--10/8--10--11--10--8--8------------6/8/6--6--5--5--3--3|
3:-----------------------------------------------------------------------------------|
4:------------------------------------------------------10--10-----------------------|
5:-----------------------------------------------------------------------------------|
6:-----------------------------------------------------------------------------------|

1:/10---10-12-13---12-13-15----12-13-15-13--12/10--12--13--12--10-|
2:----------------------------------------------------------------|
3:----------------------------------------------------------------|
4:----------------------------------------------------------------|
5:----------------------------------------------------------------|
6:----------------------------------------------------------------|

1:-10------------------------------------------------------------5/6/5--5--3--3--1--1-|
2:------10--10----10-11-13-11--10/8--10--11--10--8--8------------6/8/6--6--5--5--3--3-|
3:------------------------------------------------------------------------------------|
4:------------------------------------------------------10--10------------------------|
5:------------------------------------------------------------------------------------|
6:------------------------------------------------------------------------------------|


1:-5-|
2:-6-|
3:-7-|
4:-7-|
5:-5-|
6:---|