System Of a Down:

: System Of a Down - "RadioVideo"










[ne]FORMAT



MIDI







RadioVideo

( "Mezmerize")

System Of a Down

: Serj Tanakyan, : Serj Tanakyan
: 2005
: email: miron_yur@mail.ru

RadioVideo
Tuning: DAFCGC
Legend: / - slide up
\ - slide down
~ - hold note
Intro (0:00 - 0:27) clean
d|---7----9----11---11---11-12-9---9---9-11-7---7---7--|
a|-----------------------------------------------------|
f|-----------------------------------------------------|
c|-6---xx8--89----9----9---------8---8--------6---6----| -|
g|-----------------------------------------------------| |
c|-----------------------------------------------------| |
| x2
d|-----7----9----11---11---11-12-10-10---10------------| |
a|-----------------------------------------------------| |
f|-----------------------------------------------------| |
c|-xx6---68---89----9----9---------8---8----9-8-6-4-3--| -|
g|-----------------------------------------------------|
c|-----------------------------------------------------|
Chorus (0:27 - 0:52) Dist.
d|-----------------------------------------------------|
a|-----------------------------------------------------|
f|---------------------------------------------9-9-7~--|
c|-6-6---8-8---9~--10-10-8~----6-6---8-8---9~--9-9-7~--| x2
g|-6-6---8-8---9~--10-10-8~----6-6---8-8---9~--7-7-5~--|
c|-6-6---8-8---9~--10-10-8~----6-6---8-8---9~----------|
Chorus ending (0:52 - 0:54) Dist.
d|------------|
a|------------|
f|-9-8-6-4-3--|
c|-9-8-6-4-3--|
g|-7-6-4-2-1--|
c|------------|
Verse (0:54 - 1:21) Guitar 1 Clean
d|-4-4-4-4-4-4-4-4--2-2-2-2-2-2-2-2--|
a|-4-4-4-4-4-4-4-4--2-2-2-2-2-2-2-2--|
f|-4-4-4-4-4-4-4-4--3-3-3-3-3-3-3-3--| Repeat during the verse
c|-6-6-6-6-6-6-6-6--4-4-4-4-4-4-4-4--|
g|-6-6-6-6-6-6-6-6--4-4-4-4-4-4-4-4--|
c|-----------------------------------|
Verse part 1 (0:55 - 1:07) Guitar 2 Clean
d|-1212-11\9\7-6---1111\9\7\6\4--|
a|-------------------------------|
f|-9-9--8\6\4-3-----8-8\6\4\3\1--| x2
c|-------------------------------|
g|-------------------------------|
c|-------------------------------|
(1:08 - 1:21)Guitar 2 Clean
d|------------------------------------------|
a|----------9/11-9--------------9/11-9------|
f|-/8-4-9-8--------9-8--6-3-9-8--------9-8--| x2
c|------------------------------------------|
g|------------------------------------------|
c|------------------------------------------|
(0:56 - 1:07) Guitar 3 Clean
d|-19-19-19-19-19-19-19-19----18-18-18-18-18-18-18-18--|
a|-16-16-16-16-16-16-16-16----14-14-14-14-14-14-14-14--|
f|-----------------------------------------------------|
c|-----------------------------------------------------| x2
g|-----------------------------------------------------|
c|-----------------------------------------------------|
(1:08 - 1:21) Guitar 3 Clean
d|-19-19-19--18-|
a|--------------|
f|--------------|
c|--------------| x16
g|--------------|
c|--------------|
Chorus 2 (2:03 - 2:15)
d|---7----9----11-----------------7----9----11-----------|
a|-------------------------------------------------------|
f|-----------------------------------------------7-7-5~--|
c|-6---xx8--89------10-10-8~----6---xx8--89------7-7-5~--|
g|------------------10-10-8~---------------------7-7-5~--|
c|------------------10-10-8~-----------------------------|
_______________ _______________ Clean
________ ______ Dist.
(2:15 - 2:18) Dist.
d|------------|
a|------------|
f|-9-8-6-4-3--| Tempo "fade" - make tempo slower, slow down.
c|-9-8-6-4-3--|
g|-7-6-4-2-1--|
c|------------|
Verse 2 (2:18 - 3:35) Guitar 1 Clean
d|-4-4--4----4-4--4----4-4--4----4-4--4----2-2--2----2-2--2----2-2--2----2-2--2--|
a|-4-4--4----4-4--4----4-4--4----4-4--4----2-2--2----2-2--2----2-2--2----2-2--2--|
f|-4-4--4----4-4--4----4-4--4----4-4--4----3-3--3----3-3--3----3-3--3----3-3--3--| Repeat during the verse
c|-6-6--6----6-6--6----6-6--6----6-6--6----4-4--4----4-4--4----4-4--4----4-4--4--| 
g|-6-6--6----6-6--6----6-6--6----6-6--6----4-4--4----4-4--4----4-4--4----4-4--4--|
c|-------------------------------------------------------------------------------|
(2:19 - 3:35) Guitar 3 Clean
d|-19--19--19--19--18--18--18--18--|
a|---------------------------------|
f|---------------------------------| Repeat during the verse
c|---------------------------------|
g|---------------------------------|
c|---------------------------------|
Solo (2:37 - 2:55) Guitar 2 Clean
d|------------------------------------------------------------------------------|
a|------------------------------------------------------------------------------|
f|-8-9-8~--8-9-8~--8-9-11--11--11-11-9-8--9-8-6-6~--6-6-4-3~--3-4-6^6--6-4-3^3--|
c|------------------------------------------------------------------------------| x2
g|------------------------------------------------------------------------------|
c|------------------------------------------------------------------------------|
(2:55 - 3:10)
d|-------------------------------------------------------------------------------------------|
a|-------------------------------------------------------------------------------------------|
f|-3-3-3--4-3-1-1-1--4-3-1-1-1--4-3-1-1-1--4-3-1-1-1---6-4-3-3-3--6-4-3-3-3--6-4-3-3-3--6-4--| x2
c|-------------------------------------------------------------------------------------------|
g|-------------------------------------------------------------------------------------------|
c|-------------------------------------------------------------------------------------------|
(3:11 - 3:23)
d|-6-6-6--7-6-4-4-4--7-6-4-4-4--7-6-4-4-4--7-6-4-4-4---9-7-6-6-6--9-7-6-6-6--9-7-6-6-6--9-7--|
a|-------------------------------------------------------------------------------------------|
f|-------------------------------------------------------------------------------------------| x2
c|-------------------------------------------------------------------------------------------|
g|-------------------------------------------------------------------------------------------|
c|-------------------------------------------------------------------------------------------|
Solo 2 (3:23 - 3:35) Tremolo picking
d|--11-12-12/14--12-11-9-11-11/12-11-9--11-12-12/14--12-11--18-19-21-21^^--|
a|-------------------------------------------------------------------------|
f|-------------------------------------------------------------------------|
c|-------------------------------------------------------------------------|
g|-------------------------------------------------------------------------|
c|-------------------------------------------------------------------------|
(3:46 - 3:48) Tremolo picking Dist.
d|----------------|
a|----------------|
f|----------------| 
c|----------------|
g|--11\\\\\\\\\\--|
c|----------------|
Ending (3:59 - 4:08) Dist.
d|-------------------------------------|
a|-------------------------------------|
f|-9-8-6-4-3---------------------------|
c|-9-8-6-4-3--6666666666666666666---6--|
g|-7-6-4-2-1--6666666666666666666---6--|
c|------------6666666666666666666---6--|