System Of A Down:

: System Of A Down - "P.l.u.c.k."










[ne]FORMAT



MIDI







P.l.u.c.k.

System Of A Down


PM = Palm Mute
H = Hammer On

Intro
|---------------------------------|
|---------------------------------| ** palm mute throughout and 
|--9-9-9-9-9-9-9-9-9-9-9-9-9-9-9--| gradually release at end of
|---------------------------------| bar
|---------------------------------|
|---------------------------------|

Play the first 3 times Play the 4th time
|-----------------------------------------|--------------------------|
|-----------------------------------------|--------------------------|
|-----------------------------------------|--------------------------|
|--2-2-2-2-2-2-2-2-2-2-2-2--2--2--2--2--2-|--2-2-2-2-2-2-2-2-2-2-2-2-|
|--2-2-2-2-2-2-2-2-2-2-2-2--2--2--2--2--2-|--2-2-2-2-2-2-2-2-2-2-2-2-|
|--2-2-2-2-2-2-2-2-2-2-2-2--2--2--2--2--2-|--2-2-2-2-2-2-2-2-2-2-2-2-|
PM - - - - - - - - - - -

|--------------------------|
|--------------------------|
|--------------------------|
|--2-2-2-2-2-2-2-2-2-2-2-2-|
|--2-2-2-2-2-2-2-2-2-2-2-2-|
|--2-2-2-2-2-2-2-2-2-2-2-2-|
PM - - - - - - - -

|--------------------------|
|--------------------------|
|--------------------------|
|--2-2-2-2-2-2-2-2-2-2-2h3-|
|--2-2-2-2-2-2-2-2-2-2-2h3-|
|--2-2-2-2-2-2-2-2-2-2-2h3-|
PM - - 

Verse