System Of A Down:

: System Of A Down - "Mind"










[ne]FORMAT



MIDI







Mind

System Of A Down


1st Verse
|--------------------------------------------------------------------|
|--------------------------------------------------------------------|
|-----12-^11-----12-^11-----12----11-12-14-----11-12-14-12-11--------|
|--10----^10--10----^10--10----12-----------12----------------12-10--|
|--------------------------------------------------------------------|
|--------------------------------------------------------------------|

|--------------------------------------------------------------------|
|--------------------------------------------------------------------|
|--12-^11-------------11-12-14-----11-12-14-12-11--------------------|
|-----^10--12-10---12-----------12----------------12-10--------------|
|--------------------------------------------------------------------|
|--------------------------------------------------------------------|

|--------------------------------------------------------------------|
|--------------------------------------------------------------------|
|--12-^11---------------12----^11-----12----^11-----12----^11--------|
|-----^10--12-10-----10----10-^10--10----10-^10--10----10-^10-12-10--|
|--------------------------------------------------------------------|
|--------------------------------------------------------------------|

|--------------------------------------------------------------------|
|--------------------------------------------------------------------|
|-----12----^11-----------12----^11------------12----11----12---etc--|
|--10----10-^10-12-10--10----10-^10-12-10---10----10----10-----------|
|--------------------------------------------------------------------|
|--------------------------------------------------------------------|

Chorus
|---------|
|---------|
|---------|
|--0-0-0--|
|--0-0-0--|
|--0-0-0--|

|--------------------|
|--------------------|
|--------------------|
|--0--1-3--0--3-2-1--|
|--0--1-3--0--3-2-1--|
|--0--1-3--0--3-2-1--|        

2nd Verse
|--------------|
|-------^12----|
|--^12---------|
|--------------|
|--------------|
|--------------|

|--------------|
|------15------|
|--^16----^16--|
|--------------|
|--------------|
|--------------|

Bridge
|-------------------------------|
|-------------------------------|
|-------------------------------|
|--0-0-0-0-0-0-0-0-6-6-6--------|
|--0-0-0-0-0-0-0-0-6-6-6--------|
|--0-0-0-0-0-0-0-0-6-6-6--------|

|-------------------------------|
|-------------------------------| ** ritard on second bridge and 
|-------------------------------|    listen for note changes near 
|--7-x-6-7-x-6-7-7-7-x-6-7-x-6--|    end
|--7-x-6-7-x-6-7-7-7-x-6-7-x-6--|
|--7-x-6-7-x-6-7-7-7-x-6-7-x-6--|

|---------------|
|---------------|
|---------------|
|--0-0-0--------|
|--0-0-0--------|
|--0-0-0--------|

3rd Verse
|---------------|
|---------------|
|--------12-12--|
|--12-12--------|
|---------------|
|---------------|

|---------|----------------------|
|---------|----------------------|
|--12-----|--12p10h12p10h12-etc--|
|-----14--|----------------------|
|---------|----------------------|
|---------|----------------------|

Outro
|-----|
|-----|
|-----|
|--0--|
|--0--|
|--0--|

|------------------------|
|------------------------|
|------------------------|
|--------12-12-11-11-10--|
|------------------------|
|--0---------------------|