System of a down:

: System of a down - "Metro from the dracula 2000 soundtrack"










[ne]FORMAT



MIDI







Metro from the dracula 2000 soundtrack

System of a down



Tabed by myself, the Weasel.

/=slide
*=harmonic
p=palm mute
~=hold note
|=seperates music


standard tuning {Eadgbe}



Intro
D--p5*-------------------------------------------------------
A--p5*-------------------------------------------------------
E--p5*-------------------------------------------------------

Intro
e-12-12-12-1212-12-1212-12|--5*-------------------------------
b---------------------------------------|--5*-------------------------------
g---------------------------------------|------------------------------------

Intro
e---9----5---4--2-------|-9----55---4---2---------------------
b-----9----6--5---4-2~|--9-------6---5---4-2------------------
g--------------------------|-----------------------------------------

riff 1

D-----p5--------p6-p6-p3----p5-------------------------------------
A--p3---p6-p3------------p6-----------------------------------
E------------------------------------------------------------
im alone...

chorus

g-3-5----8|-3-5------------------------------------------------
D-3-5-6-8|-3-5-6----------------------------------------------
A-1-3-6-6|-1-3-6----------------------------------------------
E------4---|-------4----------------------------------------------
 i remember searching...

riff 2
e--9-9-9-9---------------------------------------------------
b--9-9-9-9---------------------------------------------------
g------------------------------------------------------------

 i was smileing...

fill 1
e-1-3-|1--3--6------------------------------------------------
b-3-4-|3--4--6------------------------------------------------
g-------|-------------------------------------------------------

 i remember feeling comeing...

solo
e--9--5--4-5|-9--16-14----------------------------------------
b---9--6-----|--9-------16-17-14-13-12-11--1414-1313-1212-1111-
g--------------|-------------------------------------------------


played as

-Intro

-riff1

-chorus

-riff 1
-riff 2

-chorus

-solo

-chorus
-fill 1


-riff 1, playing each note twice