System of a Down:

: System of a Down - "Marmalade"










[ne]FORMAT



MIDI







Marmalade

System of a Down



Tuning: Drop D 

Tabbed by Brian(Munky266@aol.com)

Intro

---------------------------------------------------------------
---------------------------------------------------------------
---------------------------------------------------------------
---5-5-5-8---5-5-5-8---5-5-5-8---5-5-5-8---4-4-4-7---4-4-4-7---
---------------------------------------------------------------
---------------------------------------------------------------



----------------------
----------------------   Repeat that for a while
----------------------
---4-4-4-7----4-4-4-7-
----------------------
----------------------



---------------------------------------------------------------
---------------------------------------------------------------
----------8-8-7-----------8-8-7-----------8-8-7-----------8-8-7
--5-5-8-8---------5-5-8-8---------4-4-7-7----------4-4-7-7-----
---------------------------------------------------------------
---------------------------------------------------------------


Verse

Not much guitar here but throught the verse he does this

----------   and then    -------
----5---3-   this a      ----3--
----3---1-   lotta times ----1--
----------               -------
----------               -------
----------               -------


Chorus

---------------------------------------------------------------------
---------------------------------------------------------------------
---------------------------------------------------------------------
---------------------------------------------------------------------
---------------------------------------------------------------------
--5-5-5-8---5-5-5-8---5-5-5-8---5-5-5-8---4-4-4-7---4-4-4-7---4-4-4-7


--------------------
--------------------
--------------------
--------------------
--------------------
---4-4-4-7----------


Little part before solo

----------------       -------------       -------10H11P10-     ---10H11P10-
----------------       -------------       ----------------     ------------
-----7H8P7------ 4x    ------7H8P7-- 4x    ---------------- 4x  ------------ 4x
---0------------       -------------       ---0------------     ------------
----------------       -------------       ----------------     ------------
----------------       ----0--------       ----------------     --0---------  
  PM                      PM                  PM                  PM


Solo

--------------------------------------------------------------------------
--------------------------------------------------------------------------
--12-12-12-12-12-12-12-12-14-14-14-14-15-15-15-15-11-11-11-11-11-11-11-11-
--------------------------------------------------------------------------
--------------------------------------------------------------------------
--------------------------------------------------------------------------

---------------------------R------------------------------------------------
---------------------------E---------10-10-11-11-15-15-13-13-11-11-10-10----
-15-15-15-15-14-14-14-14---P---12-12----------------------------------------
---------------------------E------------------------------------------------
---------------------------A------------------------------------------------
---------------------------T------------------------------------------------

-----------------------------------------------------------------------------
-------------10-10-11-11-10-10-13-13-11-11-10-10-------------10-10-11-11-10--
-12-12-11-11-------------------------------------12-12-12-12-----------------
-----------------------------------------------------------------------------
-----------------------------------------------------------------------------
-----------------------------------------------------------------------------

----------------------------------------------------10-10-8-8-11-11-10-10----
-10-13-13-11-11-10-10-------------10-10-11-11-10-10--------------------------
----------------------12-12-11-11--------------------------------------------
-----------------------------------------------------------------------------
-----------------------------------------------------------------------------
-----------------------------------------------------------------------------