System Of a Down:

: System Of a Down - "Lost in Hollywood"










[ne]FORMAT



MIDI







Lost in Hollywood

( "Mezmerize")

System Of a Down

: Serj Tanakyan, : Serj Tanakyan
: 2005
: email: miron_yur@mail.ru

Lost in Hollywood
Gtr tuning : (Db Ab Db Gb Bb Eb)
In Part II, just use open chords and add the note that follows the melody.
Part I
----------------------------------------------------------------
----------------------------------------------------------------
----------------------------------------------------------------
--2---2---2---2---2---2---2---2---3---3---3---3---3---3---3---3-
--0---0---0---0---0---0---0---0---0---0---0---0---0---0---0---0-
--0---0---0---0---0---0---0---0---0---0---0---0---0---0---0---0-

----------------------------------------------------------------
----------------------------------------------------------------
----------------------------------------------------------------
--9---9---9---9---9---9---9---9---7---7---7---7---7---7---7---7-
--0---0---0---0---0---0---0---0---0---0---0---0---0---0---0---0-
--0---0---0---0---0---0---0---0---0---0---0---0---0---0---0---0-


----------------------------------------------------------------
----------------------------------------------------------------
----------------------------------------------------------------
--2---2---2---2---2---2---2---2---3---3---3---3---3---3---3---3-
--0---0---0---0---0---0---0---0---0---0---0---0---0---0---0---0-
--0---0---0---0---0---0---0---0---0---0---0---0---0---0---0---0-

----------------------------------------------------------------
----------------------------------------------------------------
----------------------------------------------------------------
-12-12-12--12-12--12-12-12--7---7---7---7---7---7---7---7-
--0---0---0---0---0---0---0---0---0---0---0---0---0---0---0---0-
--0---0---0---0---0---0---0---0---0---0---0---0---0---0---0---0-

----------------------------------------------------------------
----------------------------------------------------------------
----------------------------------------------------------------
--2---2---2---2---2---2---2---2---3---3---3---3---3---3---3---3-
--0---0---0---0---0---0---0---0---0---0---0---0---0---0---0---0-
--0---0---0---0---0---0---0---0---0---0---0---0---0---0---0---0-

----------------------------------------------------------------
----------------------------------------------------------------
----------------------------------------------------------------
--9---9---9---9---9---9---9---9---7---7---7---7---7---7---7---7-
--0---0---0---0---0---0---0---0---0---0---0---0---0---0---0---0-
--0---0---0---0---0---0---0---0---0---0---0---0---0---0---0---0-

----------------------------------------------------------------
----------------------------------------------------------------
----------------------------------------------------------------
--2---2---2---2---2---2---2---2---3---3---3---3---3---3---3---3-
--0---0---0---0---0---0---0---0---0---0---0---0---0---0---0---0-
--0---0---0---0---0---0---0---0---0---0---0---0---0---0---0---0-

----------------------------------------------------------------
----------------------------------------------------------------
----------------------------------------------------------------
-12-12-12--12-12--12-12-12-14-14--14-14-14-14-14--14
--0---0---0---0---0---0---0---0---0---0---0---0---0---0---0---0-
--0---0---0---0---0---0---0---0---0---0---0---0---0---0---0---0-


Part 1

----------------------------------------------------------------
----------------------------------------------------------------
--5---5---5---5---5---5---5---5---------------------------------
--5---5---5---5---5---5---5---5---5---5---5---5---5---5---5---5-
--3---3---3---3---3---3---3---3---5---5---5---5---5---5---5---5-
----------------------------------------5---5---5---5---5---5---5---5-

----------------------------------------------------------------
----------------------------------------------------------------
----------------------------------------------------------------
--7---7---7---7---7---7---7---7---2---2---2---2---2---2---2---2-
--7---7---7---7---7---7---7---7---2---2---2---2---2---2---2---2-
--7---7---7---7---7---7---7---7---2---2---2---2---2---2---2---2-

Part III
----------------0------------------------------0----------
---------1--------------1-------------1---------------1---
-----2------2-----2-------2------2------2------2-------1--
----------------------------------------------------------
--0----------------------------2--------------------------
----------------------------------------------------------

----------------0------------------------------0----------
---------1--------------1-------------0--------------0----
-----2------2-----2-------2------2------2------2-------2--
--3-----------------------------2-------------------------
----------------------------------------------------------
----------------------------------------------------------

----------------0------------------------------0----------
---------1--------------1-------------1---------------1---
-----2------2-----2-------2------2------2------2-------1--
----------------------------------------------------------
--0----------------------------2--------------------------
----------------------------------------------------------

----------------0------------------------------0----------
----------0--------------0-------------0--------------0---
------2------2-----2-------2------2------2------2-------2-
--2-----------------------------2-------------------------
----------------------------------------------------------
----------------------------------------------------------

----------------0------------------------------0----------
---------1--------------1-------------1---------------1---
-----2------2-----2-------2------2------2------2-------1--
----------------------------------------------------------
--0----------------------------2--------------------------
----------------------------------------------------------

----------------0------------------------------0----------
---------1--------------1-------------0--------------0----
-----2------2-----2-------2------2------2------2-------2--
--3-----------------------------2-------------------------
----------------------------------------------------------
----------------------------------------------------------