System Of A Down:

: System Of A Down - "Devil"










[ne]FORMAT



MIDI







Devil

System Of A Down



Intro (starts with bass only)
|---------------------|
|---------------------|
|---------------------|
|--0-6-0-5-0-6665-----|
|--0-6-0-5-0-6665-----|
|--0-6-0-5-0-6665-----|

Verse
|--------------------------------------|
|--------------------------------------|
|--------------------------------------|
|---------------------------7P6--------|
|-0-0-000-0-000-0-000---6H7-----6H7----|
|--------------------------------------|
   -------PM---------

Chorus
|---------|----------------------------|
|---------|----------------------------|
|---------|----------------------------|
|-5-4-6-5-|---0-6-0-5-0-6665-6-5-------|
|-5-4-6-5-|---0-6-0-5-0-6665-6-5-------|
|-5-4-6-5-----0-6-0-5-0-6665-6-5-------|    

Bridge
|------------------------------------------------------|
|------------------------------------------------------|
|------------------------------------------------------|
|-0-6-0-5-0-6665---0-6-0-5-0-6665---0-6-0-5---0-6-0-5--|
|------------------------------------------------------|
|------------------------------------------------------|