System Of A Down:

: System Of A Down - "Darts"










[ne]FORMAT



MIDI







Darts

System Of A Down



1 = Bend a full step
1/2 = Bend half a step
PH = Pluck Hard

Intro/Chorus
|-----------------------------------------------------------------------|
|-----------------------------------------------------------------------|
|--------------------------------6--6-6-6-6-6-6-------------------------|
|--0--0-0-0-0-0-0-6--6-6-6-6-6-6-6--6-6-6-6-6-6-5--5-5-5-5-5-5----------|
|--0--0-0-0-0-0-0-6--6-6-6-6-6-6-4--4-4-4-4-4-4-5--5-5-5-5-5-5----------|
|--0--0-0-0-0-0-0-6--6-6-6-6-6-6----------------5--5-5-5-5-5-5----------|

Verse 1
|-----------------------------------------------------------------------|
|-------9--9^---------8--8^---------------------------------------------|
|--7-------------6------------------------------------------------------|
|-----------------------------------------------------------------------|
|-----------------------------------------------------------------------|
|-----------------------------------------------------------------------|
 1           -	 	  -

Chorus

Verse 2
|-----------------------------------------------------------------------|
|--10-10-10-10-10-10-10-10-9-9-9-9-9-9-9-9-8-8-8-8-8-8-8-8-8------------|
|-----------------------------------------------------------------------|
|-----------------------------------------------------------------------|
|-----------------------------------------------------------------------|
|-----------------------------------------------------------------------|

|-------------------------12---------11--------10--------9--------------|
|--7-7-7-7-7-7-7-7-10--10----10-9--9----9-8--8----8-7--7---7^-----------|
|-----------------------------------------------------------------------|
|-----------------------------------------------------------------------|
|-----------------------------------------------------------------------|
|-----------------------------------------------------------------------|
 1/2                                                         -

Verse 3
|-----------------------------------------------------------------------|
|-----------------------------------------------------------------------|
|-----------------------------------------------------------------------|
|-------6--6^------5--5^------------------------------------------------|
|--5----------4---------------------------------------------------------|
|-----------------------------------------------------------------------|

Chorus

Verse 4
|-----------------------------------------------------------------------|
|-----------------------------------------------------------------------|
|------------6----------------------------------------------------------|
|--0----6----6----5-----------------------------------------------------|
|--0----6----4----5-----------------------------------------------------|
|--0----6---------5-----------------------------------------------------|

Verse 5
|-----------------------------------------------------------------------|
|-----------------------------------------------------------------------|
|----------------------------------6-6-6-6-6-6-6-6----------------------|
|--0-0-0-0-0-0-0-0-6-6-6-6-6-6-6-6-6-6-6-6-6-6-6-6-5-5-5-5-5-5-5-5------|
|--0-0-0-0-0-0-0-0-6-6-6-6-6-6-6-6-4-4-4-4-4-4-6-6-5-5-5-5-5-5-5-5------|
|--0-0-0-0-0-0-0-0-6-6-6-6-6-6-6-6-----------------5-5-5-5-5-5-5-5------|

Chorus

Bridge
|-----------------------------------------------------------------------|
|--10-10-10-10-9-9-9-9-8-8-8-8------------------------------------------|
|-----------------------------------------------------------------------|
|-----------------------------------------------------------------------|
|-----------------------------------------------------------------------|
|-----------------------------------------------------------------------|
 PH -- -- -- -- - - - - - - - -

Chorus

Outro
|--------------------------------------------------|--------------------|
|--------------------------------------------------|--------------------|
|--------------------------6--6--6--6--------------|--------------------|
|--0--0--0--0--6--6--6--6--6--6--6--6---5--5--5--5-|-0------------------|
|--0--0--0--0--6--6--6--6--4--4--4--4---5--5--5--5-|-0------------------|
|--0--0--0--0--6--6--6--6---------------5--5--5--5-|-0------------------|