System Of A Down:

: System Of A Down - "Cubert"










[ne]FORMAT



MIDI







Cubert

System Of A Down


11: CUBERT

Intro
|--15-15-15-15-15-15-15-15-15-15-15-15-----------------------------------|
|------------------------------------------------------------------------|
|------------------------------------------------------------------------|
|------------------------------------------------------------------------|
|------------------------------------------------------------------------|
|------------------------------------------------------------------------|

Verse 1
|------------------------------------------------------------------------|
|------------------------------------------------------------------------|
|------------------------------------------------------------------------|
|--5--5--5--5--5--5--5--5--5--5------------------------------------------|
|--5--5--5--5--5--5--5--5--5--5------------------------------------------|
|--5--5--5--5--5--5--5--5--5--5------------------------------------------|
 PM -  -  -  -  -  -  -  -  -  -

Main Riff
|------------------------------------------------------------------------|
|------------------------------------------------------------------------|
|--3---1-----------------------------------------------------------------|
|----4---3--5-5-5-5-5-5-5-5-5-5-5-5--------------------------------------|
|-----------5-5-5-5-5-5-5-5-5-5-5-5--------------------------------------|
|-----------5-5-5-5-5-5-5-5-5-5-5-5--------------------------------------|

Chorus
|-----------------------------|------------------------------------------|
|-----------------------------|------------------------------------------|
|-----------7-7-7-------------|-------7-----6-----5----------------------|
|--5--5--5--7-7-7-7-7-7-8-8-8-|-5-5-5-7--8--6--7--5--6-------------------|
|--5--5--5--5-5-5-7-7-7-8-8-8-|-5-5-5-5--8--4--7--3--6-------------------|
|--5--5--5--------7-7-7-8-8-8-|-5-5-5----8-----7-----6-------------------|

Verse 1

Main Riff

Chorus

Verse 1

Verse 2
|------------------------------------------------------------------------|
|------------------------------------------------------------------------|
|------------------------------------------------------------------------|
|--4-4-4-4-4-4-4-4-5-5-5-5-5-5-5-5---------------------------------------|
|--4-4-4-4-4-4-4-4-5-5-5-5-5-5-5-5---------------------------------------|
|--4-4-4-4-4-4-4-4-5-5-5-5-5-5-5-5---------------------------------------|
 PM       -       -       -       -

Chorus

Outro
|------------------------------------------------------------------------|
|------------------------------------------------------------------------|
|------------------------------------------------------------------------|
|--5-5-5-5-5-5-5---------------------------------------------------------|
|--5-5-5-5-5-5-5---------------------------------------------------------|
|--5-5-5-5-5-5-5---------------------------------------------------------|