System Of A Down:

: System Of A Down - "Chop Suey (suicide)"










[ne]FORMAT



MIDI







Chop Suey (suicide)

System Of A Down



Intro (acoustic guitar)
|---------------------------------------|
|---------------------------------------|
|--/5-5555---77777--44444---22222-------|
|--/7-7777---99999--55555---33333-------|
|-----0000---00000--00000---00000-------|
|---------------------------------------|


Guitar 2 (comes in second time)
|---------------------------------------------------------|
|---------------------------------------------------------|
|---5---5---5-----7---7---7----4---4---4----2---2---2-----|
|-----7---7---7-----9---9---9----5---5---5----4---4---4---|
|---------------------------------------------------------|
|---------------------------------------------------------|
                ============PM============


Guitar 3 (comes in third time) - all tremlo picking
|-------------------------------------------------|
|-------------------------------------------------|
|--15----17----14----19----19----17----20----19---|
|-------------------------------------------------|
|-------------------------------------------------|
|-------------------------------------------------|


Heavy
|-------------------------------------------------------------|
|-------------------------------------------------------------|
|-------------------------------------------------------------|
|-------------------------------------------------------------|  x2
|----87878787---76767676----109109109109----1210121012101210--|
|----87878787---76767676----109109109109----1210121012101210--|

|-------------------------------------------------|
|-------------------------------------------------|
|-------------------------------------------------|
|-------------------------------------------------|
|-------------------------------------------------|
|---7777777---666666--999999--121212121212--------|


Verse
|-----------------------------|
|-----------------------------|
|-----------------------------|
|--777777-76------666666-67---|
|--777777-76------666666-67---|
|--777777-76------666666-67---|
   =PM= =PM=


Chorus (with other guitar doing the tremlo picking from intro)
|-------------------------------------------------------------------------|
|-------------------------------------------------------------------------|
|---5------5-----5---7------7-----7----4------4------4---2------2-----2---|
|-----7------7---------9------9----------5------5-----------3------3-----|
|-0-----0------0---0-----0------0----0-----0------0----0------0------0----|
|-------------------------------------------------------------------------|