Scorpions:

: Scorpions - "No Pain, No Gain"










[ne]FORMAT



MIDI







No Pain, No Gain

( "Face the Heat")

Scorpions


intro (repeat many times)
--------------------------------------------------------------
--------------------------------------------------------------
-9-9-9-9-9-9------5-5-5-x-5------7-7-7-7-7-7-----9-9-9-x-9-
-9-9-9-9-9-9------5-5-5-x-5------7-7-7-7-7-7-----9-9-9-x-9-
-7-7-7-7-7-7------3-3-3-x-3------5-5-5-5-5-5-----7-7-7-x-7-
--------------------------------------------------------------

verse

-------------------------------------
-------------------------------------
-9---------7---------------7--------
-9---------7-w/ volume ------7-again---
-7---------5-----knob-------5---------
-------------------------------------
-------------------------------------

prechorus (The weak will fall, the strong remain)
                               guitar 2
-------------------------------------
---------------------H---------------
-------5-----4-------2-dive-----------
--5----5-----4------------------------
--5----3-----2------------------------
--3-----------------------------------

presolo

-------------------------------------
-------------------------------------
-------------------------------------
-------------------------------------
-8-10--8-10--8-10--3--5-------------
-6--8--6--8--6--8--1--3-------------

solo rhythm play intro 

end of song play intro