Scorpions:

: Scorpions - "Alien Nation"










[ne]FORMAT



MIDI







Alien Nation

( "Face the Heat")

Scorpions



intro, part 1 and 2

part 1

------------------------------------------------
------------------------------------------------
-----H-------------------------H----------------
---9-8-----------------------9-8---------11-13--
-6------6-9-8-6--11-9-----6-----6-9-8-6--9-11---
-------------------9-7--------------------------

part 2

------------------------------------------------
------------------------------------------------
-8-8-8-8-8-----------8-8-8-8-8--6-6-6-6---------
-8-8-8-8-8--11-13---8-8-8-8-8--6-6-6-6--11-13---
-6-6-6-6-6---9-11---6-6-6-6-6--4-4-4-4---9-11---
------------------------------------------------

-----------------------------------------------
-----------------------------------------------
-8-8-8-8-8------------8-8-8-8-8-8----6-6-6-6---
-8-8-8-8-8--11-13----8-8-8-8-8-8----6-6-6-6----
-6-6-6-6-6---9-11----6-6-6-6-6-6----4-4-4-4----
-----------------------------------------------

------------------------------------
------------------------------------
-6--9--8--7-----6--9--8--6----------
-4--7--6--5-----4--7--6--4----------
-4--7--6--5-----4--7--6--4----------
------------------------------------

verse (repeat several times and then add ending)

---------------------------------------------
---------------------------------------------
-10-x-10--8-10-8-10---11-x-11--8--11-10--9---
-10-x-10--8-10-8-10---11-x-11--8--11-10--9---
--8-x--8--6--8-6--8----9--x-9---6--9---8--7--
---------------------------------------------

---------------------------------------------
---------------------------------------------
-10-x-10--8-10-8-10---11-x-11--8--8--10-10---
-10-x-10--8-10-8-10---11-x-11--8--8--10-10---
--8-x--8--6--8-6--8----9--x-9---6--6---8--8--
---------------------------------------------

ending

-------------------------
-------------------------
-6-6-6-6----8------------
-6-6-6-6----8------------
-4-4-4-4----6------------
-------------------------

prechorus

---------------------------
---------------------------
-13-11--8--------twice-----
-13-11--8------------------
-11--9--6--9-11------------
-----------7--9------------

repeat intro part 1

verse

chorus

intro

before solo

---------------------------
---------------------------
---------------------------
--13-----------------------
--11-----------------------
---------------------------

solo rhythm

palm mute throughout

-------------------------------------------------
-------------------------------------------------
-------------------------------------------------
-------------5-5-5-5--------------5-5-4-4--------
-------------5-5-5-5--------------5-5-4-4-twice--
-000000000--3-3-3-3-0000000000-3-3-2-2-----------

intro

outro

-------------------------------------------
-------------------------------------------
-8-8-8-8-8----------8-8-8-8-8----6-6-6-6---
-8-8-8-8-8--11-13--8-8-8-8-8----6-6-6-6----
-6-6-6-6-6---9-11--6-6-6-6-6----4-4-4-4----
-------------------------------------------