Red Hot Chili Peppers:

: Red Hot Chili Peppers - "The Zephyr Song"










[ne]FORMAT



MIDI







The Zephyr Song

Red Hot Chili Peppers


v   Am     G      Em     F
e|-----3------1----------------
B|---1------0--------0------1--
G|-2------0--------0------2----
D|---------------2------3------
A|-----------------------------
E|-----------------------------

   Am     G      Em     F
e|-----0--------------------0--
B|---1------0-3------0------1--
G|-2------0--------0------2----
D|---------------2------3------
A|-----------------------------
E|-----------------------------

Verses: 

   Am              G              Em             F  	
e|-----0---3-1-0-----------1-0-------------------------0--------
B|---1---------------0-3-------3------0---3-1-0------1---3-1-0--
G|-2-----2---------0-----0----------0--------------2------------
D|--------------------------------2-----2--------3--------------
A|--------------------------------------------------------------
E|--------------------------------------------------------------

   Am              G              Em             F  
e|-----0---3-5-----------1-0------------------------------------
B|---1---------3-----0-------3--------0---3-1-0------1-----1----
G|-2-----2---------0---0------------0--------------2-----2------
D|--------------------------------2-----2--------3-----3--------
A|--------------------------------------------------------------
E|--------------------------------------------------------------