Red Hot Chili Peppers:

: Red Hot Chili Peppers - "Can`t Stop"










[ne]FORMAT



MIDI







Can`t Stop

Red Hot Chili Peppers


intro-

D------------------------
A---5h7-5h7-5h7-5h7-5h7--   repeat
E------------------------


MAIN THINGY-

E------------------------------------------------------------------------------------
B------------------------------------------------------------------------------------
G-----7--9-------7--9--------7--9-------7--9---------7--9------7--9--------7--9------
D------------------------------------------------------------------------------------
A--7--------7-7-------777-5--------5-5--------555------------------------------------
E-------------------------------------------------7--------7-7-------777-8--------8-8

E-----------
B-----------
G--7--9-----
D-----------   Repeat
A-----------
E--------888

CHorus-

...Come back strong with fifty belly dancers.....

E-7--7-7-7--7-7--7-7--7-7-7-7-
B-8--8-8-8--8-8--8-8--8-8-8-8-
G-9--9-9-9--9-9--9-9--9-9-9-9-
D-x--x-x-x--x-x--x-x--x-x-x-x-
A-x--x-x-x--x-x--x-x--x-x-x-x-
E-x--x-x-x--x-x--x-x--x-x-x-x-

Chords- G  D  Bm  C
        x  x  x   o
        3  3  3   1
        o  2  4   0
        0  0  4   2
        2  x  2   3
        x  x  x   x
Main again
Chorus
Main-(Reggea style)

Chords- E5 D5 B5 C5 D5  Note: this is just the way i play it, the real chords are really 
                              hard to figure out, but it sounds good!!

Solo-

                                            %%repeat from hear-------------------%%
E-12~~~~~12--10~~~~~10------------------------12~~~12b-10~~~10b-------------------
B-15b~~~~15b-13b~~~~13b-12~~~~~12--8~~~~~~~~--------------------12~~~12b-8~~~~~12b
G-----------------------14b~~~~14b-10b~~~~~~--------------------------------------