Red Hot Chili Peppers:

: Red Hot Chili Peppers - "Around The World"










[ne]FORMAT



MIDI







Around The World

Red Hot Chili Peppers


  flea w/fuzz pedal
    E5
e:--------------------|
B:--------------------|
G:--------------------|
D:--2---(2)-----------|
A:-----------2-2-2-2--|
E:--0---(0)--0-0-0-0--|

    flea
    E5
e:-----------------------------------------------------------------|
B:-----------------------------------------------------------------|
G:-----------------------------------------------------------------|
D:--12h14-14-14--12h14-14-14-12h14-14-14--12h14-14-12--------------|
A:----------------------------------------------------14-13-12-10--|
E:-----------------------------------------------------------------|

    flea
    E5
e:------------------------------------------------------------------|
B:------------------------------------------------------------------|
G:------------------------------------------------------------------|
D:--12h14-14-14--12h14-14-14--12h14-14-14--12h14-12-----------------|
A:--------------------------------------------------14-13-12--------|
E:-----------------------------------------------------------15-12--|

    John w/distortion
e:--/12-12-12--/12-12-12--/12-12-12--/12-12-12-12-12-12-12--|
B:--/12-12-12--/12-12-12--/12-12-12--/12-12-12-12-12-12-12--|
G:--/-9--------/-9--------/-9--------/-9--------9--9--9--9--|     
D:----------------------------------------------------------|    x6
A:----------------------------------------------------------|
E:----------------------------------------------------------|

      John (verse) [clean guitar]     
      G5
e:-----------------------------------|
B:-----------------------------------|
G:-----------------------------------|
D:------3-5-3-5-3-5-------3-5-3-5----|
A:----5-----------------5------------|
E:-----------------------------------|

     Flea (verse) [pop bass]
     G5                              G5
e:-------------------------------|------------------------------|
B:-------------------------------|------------------------------|
G:-------------------------------|------------------------------|
D:----------3-----5--------2--3--|--------3----5---------3-2----|
A:-------------------------------|---------------------------5--|
E:---3----------------3--3-------|---3-------------3--3---------|

e:----------------------------------------------|
B:----------------------------------------------|
G:----------------------------------------------|
D:-------3----5--------2-3---------3-5----------|
A:--------------------------------------3~~--1~~|
E:---3-------------3-3--------3-----------------|