Rammstein:

: Rammstein - "Links 2-3-4"










[ne]FORMAT



MIDI







Links 2-3-4

Rammstein

: () {greendragon@chat.ru}

  Main Riff

   pm--      pm--     pm--    pm

e|--------------------------------------------|---------------------
b|--------------------------------------------|---------------------
g|--------------------------------------------|---------------------
d|-------2--------2--------2------3-3---5-5-5-|---------------------
a|-------2--------2--------2------3-3---5-5-5-|---------------------
E|--0-0--0---0-0--0---0-0--0---0--1-1---3-3-3-|---------------------


   Bass Part (     _  Riff_)

g|--------------------------------------------|---------------------
d|--------------------------------------------|---------------------
a|--------------------------------------------|---------------------
E|--0-0--0-0-0-0--0-0-0-0--0---0--3h5p3--3p0--|---------------------


  Chorus

e|----------------------------------------------------------------
b|----------------------------------------------------------------
g|----------------------------------------------------------------
d|-------2--------2--------3--------3--------5--------5--------5-->>
a|--2-2--2---2-2--2---3-3--3---3-3--3---5-5--5---5-5--5---5-5--5--
E|--0-0--0---0-0--0---1-1--1---1-1--1---3-3--3---3-3--3---3-3--3--


  e|----------------
  b|----------------
  g|----------------
>>d|--5-5--5-5-5----
  a|--5-5--5-5-5----
  E|--3-3--3-3-3----


  2-nd Verse Part (Without Distorsion)

e|--------------------------------------------|---------------------
b|--------------------------------------------|---------------------
g|--------------------------------------------|---------------------
d|-------2--------2--------2------------------|---------------------
a|-------2--------2--------2---0--3h5p3--3p0--|---------------------
E|--0-0--0---0-0--0---0-0--0------------------|---------------------


           ,     
     .

    -  12-  17-  1-  (  Pull Off):

 :

Em         Fm      Gm

Kann man Herzen brechen
knnen Herzen sprechen
kann man Herzen qulen
kann man Herzen stehlen


Sie wollen mein Herz am rechten Fleck
doch seh ich dann nach unten weg
da schlgt es links


Knnen Herzen singen
kann ein Herz zerspringen
knnen Herzen rein sein
kann ein Herz aus Stein sein


Sie wollen mein Herz am rechten Fleck
doch seh ich dann nach unten weg
da schlgt es links 2 3 4


Kann man Herzen fragen
ein Kind darunter tragen
kann man es verschenken
mit dem Herzen denken


Sie wollen mein Herz am rechten Fleck
doch seh ich dann nach unten weg
da schlgt es in der linken Brust
der Neider hat es schlecht gewusst


Links 2 3 4