Pantera:

: Pantera - "Domination"










[ne]FORMAT



MIDI







Domination

Pantera


RIFF 1(a):  
                  E5D5E5          E5D5E5          E5D5E5          G5A5G5 
e -----------------------------------------------------------------------------
b -----------------------------------------------------------------------------
g -----------------------------------------------------------------------------
d ----------------9-7-9-----------9-7-9-----------9-7-9------------------------
a ----------------7-5-7-----------7-5-7-----------7-5-7-----------5-7-5--------
E --------0---------------0---------------0---------------0-------3-5-3--------

COUNT:    1 & 2 & 3 & 4 & 1 & 2 & 3 & 4 & 1 & 2 & 3 & 4 & 1 & 2 & 3 & 4 &

RIFF 1(b):
                  E5D5E5          E5D5E5          E5D5E5          G5A5G5       
e -----------------------------------------------------------------------------
b -----------------------------------------------------------------------------
g -----------------------------------------------------------------------------
d ----------------9-7-9-----------9-7-9-----------9-7-9------------------------
a ----------------7-5-7-----------7-5-7-----------7-5-7-----------5-7-5--------
E --------0-0-0-----------0-0-0-----------0-0-0-----------0-0-0---3-5-3--------

COUNT:    1 & 2 & 3 & 4 & 1 & 2 & 3 & 4 & 1 & 2 & 3 & 4 & 1 & 2 & 3 & 4 &


RIFF 1(c):
                  E5D5E5          E5D5E5          E5D5E5          G5A5G5
e -----------------------------------------------------------------------------
b -----------------------------------------------------------------------------
g -----------------------------------------------------------------------------
d ----------------9-7-9-----------9-7-9-----------9-7-9------------------------
a ----------------7-5-7-----------7-5-7-----------7-5-7-----------5-7-5--------
E --------0---0-----------0---0-----------0---0-----------0---0---3-5-3--------

COUNT:    1 & 2 & 3 & 4 & 1 & 2 & 3 & 4 & 1 & 2 & 3 & 4 & 1 & 2 & 3 & 4 &


RIFF 2(a):  [6/4]                       RIFF 2(b):  [3/4]
             B5    C5    Db5   D5                 B5C5Db5D5Eb5E5
e -----------------------------------------------------------------------------
b -----------------------------------------------------------------------------
g -----------------------------------------------------------------------------
d -----------4-4-4-5-5-5-6-6-6-7-------------------4-5-6-7-8-9-----------------
a -----------2-2-2-3-3-3-4-4-4-5-------------------2-3-4-5-6-7-----------------
E -----------------------------------------------------------------------------

COUNT:       1 & 2 & 3 & 4 & 5 & 6 &               1 & 2 & 3 & 


RIFF 2(c):  [6/4]                               [4/4]
             B5    C5    Db5   D5                 A5
e -----------------------------------------|-----------------------------------
b -----------------------------------------|-----------------------------------
g -----------------------------------------|-----------------------------------
d -----------4-4-4-5-5-5-6-6-6-7-7-7-------|------7----------------------------
a -----------2-2-2-3-3-3-4-4-4-5-5-5-------|------7----------------------------
E -----------------------------------------|------5----------------------------

COUNT:       1 & 2 & 3 & 4 & 5 & 6 &              1 & 2 & 3 & 4 &


RIFF 3(a):                                          RIFF 3(b):
                E5              E5                              E5    E5  E5
e --------------------------------------------------|--------------------------
b --------------------------------------------------|--------------------------
g --------------------------------------------------|--------------------------
d --------------------------------------------------|--------------------------
a --------------2---------------2-------------------|-----------2-----2---2----
E ----------00000-----------00000-------------------|-------00000-00000-000----

COUNT :     1 & 2 & 3 & 4 & 1 & 2 & 3 & 4 &                 1 & 2 & 3 & 4 &

RIFF 4:
          B5  Bb5A5Ab5G5Gb5
e -----------------------------------------------------------------------------
b -----------------------------------------------------------------------------
g -----------------------------------------------------------------------------
d -----------------------------------------------------------------------------
a --------9---8---7-6-5-4------------------------------------------------------
E --------7---6---5-4-3-2------------------------------------------------------

COUNT:    1 & 2 & 3 & 4 & 

RIFF 5(a):
          C5              G5      A5              E5              D5
e -----------------------------------------------------------------------------
b -----------------------------------------------------------------------------
g -----------------------------------------------------------------------------
d --------5---------------------------------------9---------------7------------
a --------3---------------5-------7---------------7---------------5------------
E ------------------------3-------5-------00000--0--------00000--0-------------

COUNT:    1 & 2 & 3 & 4 & 1 & 2 & 3 & 4 & 1 & 2 & 3 & 4 & 1 & 2 & 3 & 4 &

                          RIFF 5(b):
               E5              C5              G5      F5              E5
e -----------------------|-----------------------------------------------------
b -----------------------|-----------------------------------------------------
g -----------------------|-----------------------------------------------------
d -------------9---------|-----5---------------------------------------9-------
a -------------7---------|-----3---------------5-------3---------------7-------
E -----00000--0----------|---------------------3-------1-------00000--0--------

COUNT: 1 & 2 & 3 & 4 &         1 & 2 & 3 & 4 & 1 & 2 & 3 & 4 & 1 & 2 & 3 & 4 &

                  D5              B5
e -----------------------------------------------------------------------------
b -----------------------------------------------------------------------------
g -----------------------------------------------------------------------------
d-----------------7---------------4--------------------------------------------
a ----------------5---------------2--------------------------------------------
E --------00000--0--------00000--0---------------------------------------------

COUNT:    1 & 2 & 3 & 4 & 1 & 2 & 3 & 4 &

RIFF 6:
             E5
e -----------------------------------------------------------------------------
b -----------------------------------------------------------------------------
g -----------------------------------------------------------------------------
d -----------------------------------------------------------------------------
a -----------2-----------------------------------------------------------------
E -------0000000---------------------------------------------------------------

COUNT:   1 & 2 & 3 & 4 &

RIFF 7:

e -----------------------------------------------------------------------------
b -----------------------------------------------------------------------------
g -----------------------------------------------------------------------------
d -------17--------------15--------------14------------------------------------
a -----------------------------------------------------------------------------
E -------15--------------13--------------12------------------------------------

COUNT:   1 & 2 & 3 & 4 & 1 & 2 & 3 & 4 & 1 & 2 & 3 & 4 & 1 & 2 & 3 & 4 &

e -----------------------------------------------------------------------------
b -----------------------------------------------------------------------------
g -----------------------------------------------------------------------------
d -------17--------------15--------------12------------------------------------
a -----------------------------------------------------------------------------
E -------15--------------13--------------10------------------------------------

COUNT:   1 & 2 & 3 & 4 & 1 & 2 & 3 & 4 & 1 & 2 & 3 & 4 & 1 & 2 & 3 & 4 &

RIFF 8:
         E5
e -----------------------------------------------------------------------------
b -----------------------------------------------------------------------------
g -----------------------------------------------------------------------------
d -----------------------------------------------------------------------------
a -------2-2-2---2-2-2---2-2-2---2-2-2-------2-2-2--2-2-2--2-2-2---------------
E -------0-0-0---0-0-0---0-0-0---0-0-0-------0-0-0--0-0-0--0-0-0---------------

COUNT:   1   &   2   &   3   &   4   &   1   &   2   &   3   &   4   &

RIFF 9(a)
         F5  E5  F5  E5  F5  E5  F5  E5   
e -----------------------------------------------------------------------------
b -----------------------------------------------------------------------------
g -----------------------------------------------------------------------------
d -----------------------------------------------------------------------------
a -------3-3-2-2-3-3-2-2-3-3-2-2-3-3-2-2-----2-2-2---2-2-2---2-2-2-------------
E -------1-1-0-0-1-1-0-0-1-1-0-0-1-1-0-0-----0-0-0---0-0-0---0-0-0-------------

COUNT:   1   &   2   &   3   &   4   &   1   &   2   &   3   &   4   &

RIFF 9(b)
         E5  F5  E5  F5  E5  F5  E5  F5/G5    E5
e -----------------------------------------------------------------------------
b -----------------------------------------------------------------------------
g -----------------------------------------------------------------------------
d -----------------------------------------------------------------------------
a -------2-2-3-3-2-2-3-3-2-2-3-3-2-2-3/5-----2-2-2---2-2-2---2-2-2-------------
E -------0-0-1-1-0-0-1-1-0-0-1-1-0-0-1/3-----0-0-0---0-0-0---0-0-0-------------

COUNT:   1   &   2   &   3   &   4   &   1   &   2   &   3   &   4   &