Pantera:

: Pantera - "Cemetary gates"










[ne]FORMAT



MIDI







Cemetary gates

Pantera


All guitars tune down half a step (low to high: Eb, Ab, D, Gb, Bb, Eb)

  Intro Riff
e:-------------------------|------------------------|
B:--------------2----------|----------0----0--------|
G:-----------2-------2-----|-------4----------4-----|
D:--------2----------------|----2-------------------|
A:-----4----------------0--|------------------------|
E:--2----------------------|---------------------0--|


|----------------------|--------0------------|
|--------0----0--------|-----2---------2-----|
|-----4----------4-----|--4---------------4--|
|--2----------------0--|---------------------|
|----------------------|---------------------|
|----------------------|---------------------|


e:-------------------------|------------------------|
B:--------------2----------|----------0----0--------|
G:-----------2-------2-----|-------4----------4-----|
D:--------2----------------|----2-------------------|
A:-----4----------------0--|------------------------|
E:--2----------------------|---------------------0--|


                             End Intro Riff
e:----------------------|---------0--------|
B:--------0----0--------|--2--------2------|
G:-----4----------4-----|----4--------4----|
D:--2----------------0--|------0--------0--|
A:----------------------|------------------|
E:----------------------|------------------|

  Fill #1                                            End Fill #1
e:------0-------------0------|------------0-------------0-------|
B:------3-/-6---------5-/-7--|------------0-------------0-------|
G:--4---4-/-5---------6-/-7--|--7---------7-/-9---------9-/-11--|
D:-----------------0---------|--------0-------------0-----------|
A:---------------------------|----------------------------------|
E:---------------------------|----------------------------------|


 Rhythm Fig 2 under guitar solo #1
e:--2--2-------2--------|--2--2--------2--------|
B:--5-----5-------5-----|--4-----4--------4-----|
G:--2--------2-------2--|--2--------2--------2--|
D:--2-------------------|--2--------------------|
A:--4-------------------|--4--------------------|
E:--2-------------------|--2--------------------|

         End of Rhythm Fig 2 under guitar solo #1
e:--2--2--------2--------|--2--2--------2--------|
B:--3-----3--------3-----|--2-----2--------2-----|
G:--2--------2--------2--|--2--------2--------2--|
D:--2--------------------|--2--------------------|
A:--4--------------------|--4--------------------|
E:--2--------------------|--2--------------------|

                 Fill #2 (Rhy Fig 3 Heavy Distortion)
e:----------------------|--------------------------|------------------------|
B:-----2--5-------------|--------------------------|------------------------|
G:--4-------------------|--------------------------|------------------------|
D:-------------------2--|--------------------------|-------------9~---------|
A:-------------2--4-----|--2--2--2--2--2--7--6--7--|--8~---7--8-------7--8--|
E:----------------------|--0--0--0--0--0-----------|------------------------|
                                                      P.H.       P.H.

                                    End of Rhy Fig 3
e:--------------------------|-----------------------|
B:--------------------------|-----------------------|
G:--------------------------|-----------------------|
D:--------------------------|-----------------------|
A:--2--2--2--2--2--7--6--7--|--8~---6--7-----6~-----|
E:--0--0--0--0--0-----------|-------------8------7--|
                               P.H.          P.H.


  Rhy Fig 4                         End of Rhy Fig 4
e:--------------------------|-----------------------|
B:--------------------------|-----------------------|
G:--------------------------|-----------------------|
D:-----------2--2--2--2--4--|--4--4--4--5-----------|
A:--4--4--4--0--0--0--0--2--|--2--2--2--3-----2--3--|
E:--2--2--2-----------------|-----------------0--1--|