Pantera:

: Pantera - "Becoming"










[ne]FORMAT



MIDI







Becoming

Pantera


Tune down as follows:
Basically everything is tuned down 1/2 step except the low E, which
is tuned down 1 and 1/2 steps to a Db.

Eb----------
Bb----------
Gb----------
Db----------
Ab----------
Db----------

  intro  2x
  -----------------------
  -----------------------
  -----------------------
  -----------------------
  -4-4-4--4-4-4--4-4-4---
  -4-4-4--4-4-4--4-4-4---


   riff A
  -------2-------------------2------------------
  ----------------------------------------------
  ----------------------------------------------
  ----------------------------------------------
  --2-2----2---2-2---5--2-2----2-2--4--5--------
  --2-2----2---2-2---5--2-2----2-2--4--5--------


  riff B
  ----------------------------------------------  
  ----------------------------------------------  
  ----------------------------------------------  
  ----------------------------------------------  
  -1-2---1--1--2--1--1--2---1--1--2---5---------  
  -1-2---1--1--2--1--1--2---1--1--2---5---------  


  riff C
  ----------------------------------------------  
  ----------------------------------------------  
  ----------------------------------------------  
  ----------------------------------------------  
  -9--7---4--3---0~----9---7---4--3--0~---------  
  -9--7---4--3---0~----9-8-7---4--3--0~---------  

   After the intro, play Riff A 4 times.  Then play Riff B as the vocals
   start.  Riff B is played 4x, I think, then goes back to Riff A.
   Riff C is played while Phil is singing (screaming):
   "I'm born again with snakes eyes, becoming Godsize"