Offspring:

: Offspring - "SMASH"










[ne]FORMAT



MIDI







SMASH

Offspring


main riff

|-----------------------------------------|The next part of the song
|-----------------------------------------|is the same chords but
|-10-10-10--------------------------------|with a different rhythm
|-10-10-10-10--11-11---6---8-8-8-8--10-10-|and palm-muting.
|-8--8--8--10--11-11---6---8-8-8-8--10-10-|
|----------8->-9--9----4->-6-6-6-6--8--8--|

chorus

|-------------|-------------|These chords are also played later
|-------------|-------------|in the song with a different but
|----8--6---8-|----8--6->-5-|easy rhythm.
|-6--8--6---8-|-6--8--6->-5-|
|-6--6--4->-6-|-6--6--4->-3-|
|-4-----------|-4-----------|

post chorus

|-------------|
|-------------|
|-------------|
|-------------|
|---3-4-3-----|
|-1-------4-3-|

bridge

|---------------------------|
|---------------------------|
|-10-10--8-8--6-6--8-8--9-9-|
|-10-10--8-8--6-6--8-8--9-9-|
|-8--8---6-6--4-4--6-6--7-7-|
|---------------------------|

behind bridge

|-------------------|
|-------------------|
|-------------------|
|-------------------|
|-----3-3-4-4-3-----|
|-1-1-----------4-3-|

last bridge

|----------------------------|
|----------------------------|
|-10-10--8-8--6-6--8-8-5---8-|
|-10-10--8-8--6-6--8-8-5-8-8-|
|-8--8---6-6--4-4--6-6-3-8-6-|
|------------------------6---|