Offspring:

: Offspring - "NOT THE ONE"










[ne]FORMAT



MIDI







NOT THE ONE

Offspring


main riff

|------------------| 2 rhythms - easy to work out.
|------------------|
|-5-5-5---7--7-7-7-|
|-5-5-5---7--7-7-7-|
|-3-3-3->-5--7-7-7-|
|------------5-5-5-|

chorus

|---------------------------|
|---------------------------|
|------4---5-5--5-5---7-----|
|-7-7--4---5-5--5-5---7-7-7-|
|-7-7--2->-3-3--3-3->-5-7-7-|
|-5-5-------------------5-5-|