Offspring:

: Offspring - "SO ALONE"










[ne]FORMAT



MIDI







SO ALONE

Offspring


main riff

|-----------------------|
|-----------------------|
|-4-4-x-7-7-------------|
|-4-4-x-7-7-x-7-7-x-9-9-|
|-2-2-x-5-5-x-7-7-x-9-9-|
|-----------x-5-5-x-7-7-|

chorus with pickscrapes in between chords

|-------------------|
|-------------------|
|-------------------|
|--7----9----7----4-|
|--7----9----7----4-|
|--5----7----5----2-|

rhythm 1

|---------------------|
|---------------------|
|-4-4-x-7-7-----------|
|-4-4-x-7-7-x-7-7-x-9-|
|-2-2-x-5-5-x-7-7-x-9-|
|-----------x-5-5-x-7-|

|----------------------------------------|
|----------------------------------------|
|----------------------------------------|
|-7--------------------------------------|
|-7--------------------------------------|
|-5-5-5-5---5-5-5---5-5-5--5-5-5---5-5-5-|