Offspring:

: Offspring - "WHAT HAPPENED TO YOU"










[ne]FORMAT



MIDI







WHAT HAPPENED TO YOU

Offspring


intro

|-------------------------------|Work out how many times to play
|-------------------------------|chords from CD.
|-------10----10---10----10-9-8-|
|-8-10--10-10-10-8-10-10-10-9-8-|
|-8-10--8--10-8--8-8--10-8--7-6-|
|-6-8------8-----6----8---------|

verse

|-----------|
|-----------|
|-7------10-|
|-7-8-10-10-|
|-5-8-10-8--|
|---6-8-----|

chorus

|-----------|
|-----------|
|-7---10----|
|-7-8-10-10-|
|-5-8-8--10-|
|---6----8--|

solo - over verse chords

|-------------------------------------|
|-------------------------------------|
|-----------5--7--5--7b9r7--5---5--7--|
|------5--7-------------------7-------|
|-5--8--------------------------------|
|-------------------------------------|

|---------------------------------|
|------------------------8-8------|
|-----------5--7--5--7b9-----7--5-|
|------5--7-----------------------|
|-5--8----------------------------|
|---------------------------------|

|-------------------------------------------------------10-----|
|-------------------------------------------------10-13----13--|
|--------------------10--12--10--12b14r12--10--12--------------|
|-------------10-12--------------------------------------------|
|-------10-12--------------------------------------------------|
|-10-13--------------------------------------------------------|

|-10b11r10--13-10-13--15-13-15b17--15b17--15-13------------13-|
|-----------------------------------------------15--13--15----|
|-------------------------------------------------------------|
|-------------------------------------------------------------|
|-------------------------------------------------------------|
|-------------------------------------------------------------|

end

|---------------------------|
|---------------------------|
|----------10---10-10----10-|
|-8-10-----10-8-10-10-10-10-|
|-8-10-x3--8--8-8--8--10-8--|
|-6-8---------6-------8-----|