Offspring:

: Offspring - "KILLBOY POWERHEAD"










[ne]FORMAT



MIDI







KILLBOY POWERHEAD

Offspring


intro and verse

|---------------------------|
|---------------------------|
|-9--9>7>9>7---10-12---x-11-|
|-9--9>7>9>7---10-12---x-11-|
|-7--7>5>7>5---10-10---x-9--|
|---------------------------|

chorus
|-----------------------------|
|-----------------------------|
|-9---5---7---9-9---5-5---7-7-|
|-9---5---7---9-9---5-5---7-7-|
|-7---3---5---7-7---3-3---5-5-|
|-----------------------------|

rhythm 1

|---------------------|
|---------------------|
|-4-2-2-4-2-2-4-4-7-4-|
|-4-2-2-4-2-2-4-4-7-4-|
|-2-0-0-2-0-0-2-2-5-2-|
|---------------------|

verse 2

|---|
|---|
|-9-|
|-9-|
|-7-|
|---|


rhythm 2

|------------------------------------|
|------------------------------------|
|------------------------------------|
|-10-x-8->-10-x--8->-10--10--13--x-8-|
|-10-x-8->-10-x--8->-10--10--13--x-8-|
|-8--x-6->-8--x--6->-8---8---11--x-6-|

rhyth=7Fm 3

|--------------------------------|
|--------------------------------|
|--------------------------------|
|-10*--6*--8*--10-10---6-6---8-8-|
|-10---6---8---10-10---6-6---8-8-|
|-8----4---6---8--8----4-4---6-6-|