Offspring:

: Offspring - "IT'LL BE A LONG TIME"










[ne]FORMAT



MIDI







IT'LL BE A LONG TIME

Offspring


main riff

|-------------------------------|2 rhythms to this riff, easy to work
|-------------------------------|out, don't forget palm-muting.
|-7-7--5---7-7--5---3-3-10-10-7-|
|-7-7--5---7-7--5---3-3-10-10-7-|
|-5-5--3->-5-5--3->-1-1-8--8--5-|
|-------------------------------|

chorus

|----------------------------------|-------------|-------|
|----------------------------------|-------------|-------|
|-7-7-7--10--10--5--7-----5--5---7-|----5--5-7-7-|-5---2-|
|-7-7-7--10--10--5--7--8--5--5-7-7-|-8--5--5-7-7-|-5---2-|
|-5-5-5--8-------3--5--8--3--3-7-5-|-8--3--3-7-5-|-3---0-|
|----------------------6-------5---|-6-------5---|-------|

bridge

|-----------------------------|-------------------------------|
|-----------------------------|-------------------------------|
|-7-7-7---5-5--12-12-12---7-7-|-5-5-5-5-----------7-7-7-7-7-7-|
|-7-7-7---5-5--12-12-12---7-7-|-5-5-5-5--5-5-5-5--7-7-7-7-7-7-|
|-5-5-5->-3-3--10-10-10->-5-5-|-3-3-3-3--5-5-5-5--5-5-5-5-5-5-|
|-----------------------------|----------3-3-3-3--------------|

solo over main riff

|-----------|-----------|-----------|
|-6-6-5-5-6-|-6-6-5-5-6-|-----8-8-3-|
|-5-5-4-4-5-|-5-5-4-4-5-|-5-5-7-7-2-|=7F
|-----------|-----------|-5-5-------|
|-----------|-----------|-----------|
|-----------|-----------|-----------|