Offspring:

: Offspring - "SELF ESTEEM"










[ne]FORMAT



MIDI







SELF ESTEEM

Offspring


main riff

|------------------------------------------------|Play chord in
|------------------------------------------------|brackets at end of
|----------------10-10---5-5---------------------|each whole section.
|-7--7--x-x-x-x--10-10---5-5--x-x-x-x--5-5---(3)-|Don't forget palm-
|-7--7--x-x-x-x--8--8----3-3--x-x-x-x--5-5---(3)-|muting in necessary
|-5--5--x-x-x-x---------------x-x-x-x--3-3---(1)-|places in whole
                                                  song.
fill in

|-----------|
|-----------|
|-----------|
|-x-12-x-12-|
|-x-12-x-12-|
|-x-10-x-10-|

|---------------------------------------------------------|
|---------------------------------------------------------|
|------------------------5-5-5-5-5------------------------|
|-7-7-7-7-7--3-3-3-3-3---5-5-5-5-5--5-5-5-5-5---7-7-7-7-7-|
|-7-7-7-7-7--3-3-3-3-3->-3-3-3-3-3--5-5-5-5-5---7-7-7-7-7-|
|-5-5-5-5-5--1-1-1-1-1--------------3-3-3-3-3->-5-5-5-5-5-|

bridge

|-----------------------------|
|-----------------------------|
|-7-7-x-3-3-x-----x-5-5-5-5-5-|
|-7-7-x-3-3-x-3-3-x-5-5-5-5-5-|
|-5-5-x-1-1-x-3-3-x-3-3-3-3-3-|
|-----x-----x-1-1-x-----------|

end

|---------------------------------------------|
|---------------------------------------------|
|-7-7-x-3-3-x-5-5-x---------------------------|
|-7-7-x-3-3-x-5-5-x-5-5-x-3-3-3-3-3-3-3-3-3-3-|
|-5-5-x-1-1-x-3-3-x-5-5-x-3-3-3-3-3-3-3-3-3-3-|
|-------------------3-3-x-1-1-1-1-1-1-1-1-1-1-|