Offspring:

: Offspring - "COME OUT AND PLAY"










[ne]FORMAT



MIDI







COME OUT AND PLAY

Offspring


intro
|-5-5-5-|Harmonics
|-5-5-5-|
|-5-5-5-|
|-------|
|-------|
|-------|

intro and chorus

|-----------------------------|Chords in brackets are played after
|-----------------------------|fig in various parts of the song. It
|-4-4-4---7---------------(4)-|is easy to work out but don't get them
|-4-4-4---7---4---7--(4)--(4)-|confused.
|-2-2-2->-5---4---7--(4)--(2)-|
|-------------2->-5--(2)------|

guitar 2

|--------------------|
|--------------------|
|-11-11-11->-14--9-9-|
|--------------------|
|--------------------|
|--------------------|

egyptian guitar riff

|-------------------------|
|-------------------------|
|-------------------------|
|-----1-2-4-2-1-----------|
|-2-3-----------3-2-2-3-2-|
|-------------------------|

verse

|-----------------------------------|
|-----------------------------------|
|-4-4-4------------4-4-4---7--------|
|-4-4-4-4--4---7---4-4-4---7--4---7-|
|-2-2-2-4--4---7---2-2-2->-5--4---7-|
|-------2--2->-5--------------2->-5-|

chorus

|-----------------------------|
|-----------------------------|
|-9-9--12-12--11-11-11--------|
|-9-9--12-12--11-11-11-9-9-9--|
|-7-7--10-10--9--9--9--9-9-9--|
|----------------------7-7-7--|

bridge

|------------------------|
|------------------------|
|------------------------|
|-9-9-9-9--5-5-5-5-5-5-5-|
|-7-7-7-7--3-3-3-3-3-3-3-|
|------------------------|