Offspring:

: Offspring - "GENOCIDE"










[ne]FORMAT



MIDI







GENOCIDE

Offspring


intro

|-------------------------------------|
|-------------------------------------|
|-----------------------------5-5-5-5-|
|-5-5-5-5-5-5-5-5-5--3-3-3-3--5-5-5-5-|
|-5-5-5-5-5-5-5-5-5--3-3-3-3--3-3-3-3-|
|-3-3-3-3-3-3-3-3-3--1-1-1-1----------|

fast riff (trill each note, follow music on CD)

|-6-5-6-8-6-5---5-6--------------|This might be slightly wrong.
|-------------6-----5--5-6-5-3-5-|Play with speed - no-one will
|--------------------------------|notice.
|--------------------------------|
|--------------------------------|
|--------------------------------|

|------------------------------------------|
|------------------------------------------|
|-0-0-0-0-0-0-0-0-0-0-0-0-0-0-0-0--5-5-5-5-|
|----------------------------------5-5-5-5-|
|----------------------------------3-3-3-3-|
|------------------------------------------|

chorus

|--------------------|
|--------------------|
|--------------------|
|-5----8----15----10-|
|-5----8----15----10-|
|-3----6----13----8--|

bridge

|--------|
|--------|
|-8----5-|
|-8----5-|
|-6----3-|
|--------|

coda

|----------------------------------------------|
|----------------------------------------------|
|----------------------------------------------|
|----------------------------------------------|
|--5-5-5-5-8-8-8-8--15--15--15--15-10-10-10-10-|
|-3-3-3-3-6-6-6-6-13--13--13--13--8--8--8--8---|

over coda

|---------------------------|
|---------------------------|
|---------------------------|
|-5-5---8-8---15-15---10-10-|
|-5-5---8-8---15-15---10-10-|
|-3-3---6-6---13-13---8--8--|