Offspring:

: Offspring - "GOTTA GET AWAY"










[ne]FORMAT



MIDI







GOTTA GET AWAY

Offspring


intro

|-10-10----3-3-3--0------10-10----3-3-5--0-|
|----------3-3-2--0---------------3-3-3--0-|
|------------------------------------------|
|------------------------------------------|
|------------------------------------------|
|------------------------------------------|

main riff

|-------------------------------------------------------------------|
|-------------------------------------------------------------------|
|9-9s7-7-9-9s7-7-9-9s12-12-9-9s12-12-9-9s14-14-9-9s14-14-9-10-9-10-9|
|9-9s7-7-9-9s7-7-9-9s12-12-9-9s12-12-9-9s14-14-9-9s14-14-9-10-9-10-9|
|7-7s5-5-7-7s5-5-7-7s10-10-7-7s10-10-7-7s12-12-7-7s12-12-7-8--7-8--7|
|-------------------------------------------------------------------|

Verse

|----------------------------------------------------------------|
|----------------------------------------------------------------|
|-----7-7-----7-7-----9-9-----9-9-----12-12-----14---9-10-9-10-9-|
|-----7-7-----7-7-----9-9-----9-9-----12-12-----14---9-10-9-10-9-|
|-----5-5-----5-5-----7-7-----7-7-----10-10-----12---7-8--7-8--7-|
|-0-0-----0-0-----0-0-----0-0-----0-0-------0-0------------------|

Chorus
|----------------------------------------|
|----------------------------------------|
|-9-9-9--------------------------7-7-7-7-|
|-9-9-9--9s10-10-10-10--5-5-5-5--7-7-7-7-|
|-7-7-7--9s10-10-10-10--5-5-5-5--5-5-5-5-|
|--------7s8--8--8--8---3-3-3-3----------|